PrimaNota.ru - самый крупный в мире бесплатный архив песенных текстов, аккордов, табулатур и нот


Eighties Matchbox B-line Disaster - So Long Goodbye - таба, видео

Регистрация Запомнить меня
Войти через:  Facebook Google Twitter Vk Yandex Mail.ru

Eighties Matchbox B-line Disaster - So Long Goodbye - таба, видео

Печатать
Просмотров: 101
-----------------------------------------------------------------------------
            So Long Goodbye - Eighties Matchbox B-Line Disaster
-----------------------------------------------------------------------------

Tabbed by: aguywith2ears

Tuning: EADGBE standard

Intro

   Am      C                  Am         Am      C          E
|------------------|------------------|------------------|------------------|
|------------------|------------------|------------------|------------------|
|------2-------0---|--------------2---|------2-------0---|------1-------1---|
|----2---2---2---2-|----2-------2---2-|----2---2---2---2-|----2---2---2---2-|
|--0-------3-------|--2---3-2-0-------|--0-------3-------|--2-------2-------|
|------------------|------------------|------------------|------------------|

   Am      C                  Am         Am      E          Am
|------------------|------------------|------------------|------------------|
|------------------|------------------|------------------|------------------|
|------2-------0---|--------------2---|------2-------1---|------2-------2---|
|----2---2---2---2-|----2-------2---2-|----2---2---2---2-|----2---2---2---2-|
|--0-------3-------|--2---3-2-0-------|--0-------2-------|--0-------0-------|
|------------------|------------------|------------------|------------------|

Verse 1

   Am      C                  Am         Am      C          E
|------------------|------------------|------------------|------------------|
|------------------|------------------|------------------|------------------|
|------2-------0---|--------------2---|------2-------0---|------1-------1---|
|----2---2---2---2-|----2-------2---2-|----2---2---2---2-|----2---2---2---2-|
|--0-------3-------|--2---3-2-0-------|--0-------3-------|--2-------2-------|
|------------------|------------------|------------------|------------------|
        No stars     are shining down   upon my sorry      head

   Am      C                  Am         Am      E          Am
|------------------|------------------|------------------|------------------|
|------------------|------------------|------------------|------------------|
|------2-------0---|--------------2---|------2-------1---|------2-------2---|
|----2---2---2---2-|----2-------2---2-|----2---2---2---2-|----2---2---2---2-|
|--0-------3-------|--2---3-2-0-------|--0-------2-------|--0-------0-------|
|------------------|------------------|------------------|------------------|
  and in the morning I will be gone and I'll leave you here for dead

   Am      C                  Am         Am      C          E
|------------------|------------------|------------------|------------------|
|------------------|------------------|------------------|------------------|
|------2-------0---|--------------2---|------2-------0---|------1-------1---|
|----2---2---2---2-|----2-------2---2-|----2---2---2---2-|----2---2---2---2-|
|--0-------3-------|--2---3-2-0-------|--0-------3-------|--2-------2-------|
|------------------|------------------|------------------|------------------|
         I said      I've had enough of all your vicious    lies

   Am      C                  Am         Am      E          Am
|------------------|------------------|------------------|------------------|
|------------------|------------------|------------------|------------------|
|------2-------0---|--------------2---|------2-------1---|------2-------2---|
|----2---2---2---2-|----2-------2---2-|----2---2---2---2-|----2---2---2---2-|
|--0-------3-------|--2---3-2-0-------|--0-------2-------|--0-------0-------|
|------------------|------------------|------------------|------------------|
      Your heart's as black as sin and there's grudges in your   eyes

Chorus [Choruses 1 & 2 are played once, the others twice]

   C                  E                  Am
|------------------|------------------|------------------|------------------|
|------1-------1---|------0-------0---|------1-------1---|------1-------1---|
|--------0-------0-|--------1-------1-|--------2-------2-|--------2-------2-|
|----2-------2-----|----2-------2-----|----2-------2-----|----2-------2-----|
|--3-------3-------|--2-------2-------|--0-------0-------|--0-------0-------|
|------------------|------------------|------------------|------------------|
    I'm leavin' you,    I'm leavin' you    tonight      [first chorus]
    I'm leavin' her,    I'm leavin' her    tonight      [all other choruses]

   C                  E                  Am
|------------------|------------------|------------------|------------------|
|------1-------1---|------0-------0---|------1-------1---|------1-------1---|
|--------0-------0-|--------1-------1-|--------2-------2-|--------2-------2-|
|----2-------2-----|----2-------2-----|----2-------2-----|----2-------2-----|
|--3-------3-------|--2-------2-------|--0-------0-------|--0-------0-------|
|------------------|------------------|------------------|------------------|
  I will be gone so  long so say         goodbye

After Choruses 2 and 3 add these four bars :

   A5
|------------------|------------------|------------------|------------------|
|------------------|------------------|------------------|------------------|
|--2-2-2-2-2-2-2-2-|--2-2-2-2-2-2-2-2-|--2-2-2-2-2-2-2-2-|--2-2-2-2-2-2-2-2-|
|--2-2-2-2-2-2-2-0-|--2-2-2-2-2-2-2-0-|--2-2-2-2-2-2-2-0-|--2-2-2-2-2-2-2-0-|
|--0-0-0-0-0-0-0-0-|--0-0-0-0-0-0-0-0-|--0-0-0-0-0-0-0-0-|--0-0-0-0-0-0-0-0-|
|------------------|------------------|------------------|------------------|

Solo (2:42-3:09)

   Am      C                 Am          Am      C          E
|------------------|------------------|------------------|------------------|
|------------------|------------------|------------------|------------------|
|--2-----2/5-----5-|--4-4-5-4-2-----2-|--2-----2-5-----5-|--4---------------|
|------------------|------------------|------------------|------------------|
|------------------|------------------|------------------|------------------|
|------------------|------------------|------------------|------------------|

   Am      C                 Am          Am      E          Am
|------------------|------------------|------------------|------------------|
|------------------|------------------|------------------|------------------|
|------2-2/5-----5-|--4-4-5-4-2-----2-|--2-----2-1-----1-|--2---------------|
|------------------|------------------|------------------|------------------|
|------------------|------------------|------------------|------------------|
|------------------|------------------|------------------|------------------|

   Am      C                 Am          Am      C          E
|------5---8-----8-|--7-7-8-7-5-----5-|--------5-8-----8-|--7---------------|
|-/5---------------|------------------|-/5---------------|------------------|
|------------------|------------------|------------------|------------------|
|------------------|------------------|------------------|------------------|
|------------------|------------------|------------------|------------------|
|------------------|------------------|------------------|------------------|

   Am      C                 Am          Am      E          Am
|------5---8-----8-|--7-7-8-7-5-----5-|--5-----5-4-----4-|--5---------------|
|-/5---------------|------------------|------------------|------------------|
|------------------|------------------|------------------|------------------|
|------------------|------------------|------------------|------------------|
|------------------|------------------|------------------|------------------|
|------------------|------------------|------------------|------------------|

Verse 2

She said, she said to me "I curse your wretched soul"
I said I'm sorry hun, but your lies are growing old
I'd rather die alone than waste my life away
With you in this wretched house and your scheming evil ways

Verse 3

I found her in his arms with rapture in her eyes
I said I'm sorry hun, but you made me mad tonight
I stepped into her room and shot her in the head
I said I told you girl that I'd leave you here for dead

Verse 4

No stars are shining down upon my sorry head
and in the morning I will be gone and I'll leave you here for dead
I said I've had enough of all your vicious lies
Your heart's as black as sin and there's grudges in your eyes

************************************

| /   slide up
| \   slide down
| h   hammer-on
| p   pull-off
| ~   vibrato
| +   harmonic
| x   Mute note
| b   Bend
| pb  Pre-bend
| br  Bend release
| pbr Pre-bend release
| brb Bend release bend

************************************
Добавлено: 27.05.2012
Другие материалы по этой песне:
  • Аккорды и текст

Страница создана 27.05.2012
http://primanota.ru/eighties-matchbox-b-line-disaster/so-long-goodbye-chords.htm
Привет, Гость.
Предлагаем пройти революционный курс по гитаре.
Подарок от PrimaNota.Ru, забирай!