PrimaNota.ru - самый крупный в мире бесплатный архив песенных текстов, аккордов, табулатур и нот


Eighteen Visions - Victim - текст песни, таба, видео

Регистрация Запомнить меня
Войти через:  Facebook Google Twitter Vk Yandex Mail.ru

Eighteen Visions - Victim - текст песни, таба, видео

Печатать
Просмотров: 172
hey guy ive been waitng ages for somone to post that tab
and i cant fidn it anywere so i decided to figure otu the bti right after the intro and 
sounds sorta right miby this may help yous get the right tab for it

*intro*
---------------------------------|
---------------------------------|
---------------------------------| as many time needed
------------5--------------------|
------------5--------------------|
------------3--------------------|

*bit after intro
---------------------------------------------------------|
---------------------------------------------------------|
---------------------------------------------------------|
----5-5-5-----12-12----7-7-7--9-9-9----------------------|
----5-5-5-----12-12----7-7-7--9-9-9----------------------|
----3-3-3-----10-10----5-5-5--7-7-7----------------------|

hope this is right please tab the rest of the song if you figure it out
Добавлено: 29.03.2012
Другие материалы по этой песне:

Страница создана 03.03.2012
http://primanota.ru/eighteen-visions/victim-chords.htm
Привет, Гость.
Предлагаем пройти революционный курс по гитаре.
Подарок от PrimaNota.Ru, забирай!