PrimaNota.ru - самый крупный в мире бесплатный архив песенных текстов, аккордов, табулатур и нот


Eighteen Visions - Pretty Suicide - текст песни, таба, видео

Регистрация Запомнить меня
Войти через:  Facebook Google Twitter Vk Yandex Mail.ru

Eighteen Visions - Pretty Suicide - текст песни, таба, видео

Печатать
Просмотров: 115
Song: Pretty Suicide
Band: Eighteen Visions
Tuning: Drop B

Drum Part (0:00-0:36)

INTRO
Both Guitars 2x (0:37-0:45)
|---------------------------------------------------|
|---------------------------------------------------|
|---------------------------------------------------|
|-0-0-5-4-7-5-0-5-4-7-5-0-5-4-7-5-0-5-4-7-5---------|
|-0-0-5-4-7-5-0-5-4-7-5-0-5-4-7-5-0-5-4-7-5---------|
|-0-0-5-4-7-5-0-5-4-7-5-0-5-4-7-5-0-5-4-7-5---------|

Rhythm Guitar Only (0:45-0:48)
|--------------------------------|
|--------------------------------|
|--------------------------------|
|--------------------------------|
|--------------------------------|
|-0-5-4-8-7-5-4-0-5-4-7-5-4-0----|

VERSE
Both Guitars 2X (0:49-1:01)
|----------------------------------------------------------|
|----------------------------------------------------------|
|----------------------------------------------------------|
|-0-5-4-8-7-5-4-0-5-4-7-5-4-0-0-5-4-8-7-5-4-0-5-4-7-5-4-0--|
|-0-5-4-8-7-5-4-0-5-4-7-5-4-0-0-5-4-8-7-5-4-0-5-4-7-5-4-0--|
|-0-5-4-8-7-5-4-0-5-4-7-5-4-0-0-5-4-8-7-5-4-0-5-4-7-5-4-0--|

PRE-CHORUS
Both Guitars 4x (1:02-1:13)
|-------------------------------|
|-------------------------------|
|-------------------------------|
|-0-0-5-0-5-6-0-0-5-3-0-5-6-----|
|-0-0-5-0-5-6-0-0-5-3-0-5-6-----|
|-0-0-5-0-5-6-0-0-5-3-0-5-6-----|
  : :   :     : :     :

CHORUS (1:14-1-26)
Lead Guitar 2x
|-17-14----14-16-14----14-14-16-13-------14-16-----|
|-------15----------15----------------14-----------|
|----------------------------------15--------------|
|--------------------------------------------------|
|--------------------------------------------------|
|--------------------------------------------------|

Rhythm Guitar 
|-------------------------------|
|-------------------------------|
|-------------------------------|
|-555-555-888-885---------------|
|-555-555-888-885---------------|
|-555-555-888-885----04567654---|
               : 

Repeat Intro (1:27-1:35)
Repeat Pre-Chorus (1:36-1:47)
Repeat Chorus 2x (1:48-2:13)

BRIDGE
Lead Guitar only (2:14-2:19)
|--------------------------------------|
|--------------------------------------|
|-9999999999999999-3333333333333333----|
|-xxxxxxxxxxxxxxxx-xxxxxxxxxxxxxxxx----|
|-7777777777777777-2222222222222222----|
|--------------------------------------|

Rhythm Guitar Only (2:20-2:25)
|------------------------------------|
|------------------------------------|
|------------------------------------|
|-555-555-555-555-555-555-555-555----|
|-555-555-555-555-555-555-555-555----|
|-555-555-555-555-555-555-555-555----|

Both Guitars 2x (2:26-2:38)
|-----------------------------------------|
|-----------------------------------------|
|-----------------------------------------|
|-5-0-0-00--6-5-0-00--5-0-0-00------------|
|-5-0-0-00--6-5-0-00--5-0-0-00------------|
|-5-0-0-00--6-5-0-00--5-0-0-00--04567654--|


PRE-CHORUS 2
Rhythm Guitar (2:39-2:44)
|-------------------------------|
|-------------------------------|
|-------------------------------|
|-555-555-888-885---------------|
|-555-555-888-885---------------|
|-555-555-888-885-----04567654--|
|               :               |
|Lead Guitar                    |
|-------------------------------|
|-------------------------------|
|-------------------------------|
|------------------00-----------|
|------------------00-----------|
|------------------00-04567654--|
                   ::

Repeat Chorus (2:45-3:10)
Repeat Intro  (3:11-3:18)

Rhythm Guitar Only (3:19-3:24)
|-----------------------------------------------|
|-----------------------------------------------|
|-----------------------------------------------|
|-555-151515-555-151515-555-151515-555-151515---|
|-555-151515-555-151515-555-151515-555-151515---|
|-555-151515-555-151515-555-151515-555-151515---|

Rhythm Guitar Only (3:24-3:30)
|--------------------------------|
|--------------------------------|
|--------------------------------|
|-555-----555-----555-----555----|
|-555-----555-----555-----555----|
|-555-----555-----555-----555----|

Both Guitars 4x (3:31-3:43)
|-----------------------------------------|
|-----------------------------------------|
|-----------------------------------------|
|-5-0-0-00--6-5-0-00--5-0-0-00------------|
|-5-0-0-00--6-5-0-00--5-0-0-00------------|
|-5-0-0-00--6-5-0-00--5-0-0-00--04567654--|

Drum Part (3:44-3:50)

Both Guitars 2x (3:51-4:01)
|---------------------------------|
|---------------------------------|
|---------------------------------|
|-544----544----544---------------|
|-544----544----544---------------|
|-544----544----544----04567654---|

Both Guitars 8x (4:02-4:18)
|---------------------------------|
|---------------------------------|
|---------------------------------|
|---------------------------------|
|---------------------------------|
|-045676540-00547605--------------|

Extra Part (4:08-4:18)
|-17tb----------------------------|
|---------------------------------|
|---------------------------------|
|---------------------------------|
|---------------------------------|
|---------------------------------|


:  Palm Mute
tb Trill Bend

*Please Rate*
Добавлено: 10.07.2012
Другие материалы по этой песне:
  • Аккорды и текст

Страница создана 04.05.2012
http://primanota.ru/eighteen-visions/pretty-suicide-chords.htm
Привет, Гость.
Предлагаем пройти революционный курс по гитаре.
Подарок от PrimaNota.Ru, забирай!