PrimaNota.ru - самый крупный в мире бесплатный архив песенных текстов, аккордов, табулатур и нот


Eighteen Visions - Our Darkest Days - текст песни, таба, бас-таба, видео

Регистрация Запомнить меня
Войти через:  Facebook Google Twitter Vk Yandex Mail.ru

Eighteen Visions - Our Darkest Days - текст песни, таба, бас-таба, видео

Печатать
Просмотров: 184
Intro
|----------9-------------|----------9----------------| 8x
|-10----10---10----10----|--10---10---10---10--------|
|----11---------11----11-|-----9---------9----9------|
|------------------------|---------------------------|
|------------------------|---------------------------|
|------------------------|---------------------------|

Chorus-         “WE MUST ESCAPE…” “…OUR DARKEST DAYS…”                                   
|--------------------------------|------------------------------| 2x
|--------------------------------|------------------------------|
|--------------------------2X----|-------------------------2X---|
|-0-0-0-0-0-0-0--000-0-0---------|-4-4-4-4-4-4-4--444-4-4-------|
|-0-0-0-0-0-0-0--000-0-0---------|-4-4-4-4-4-4-4--444-4-4-------|
|-0-0-0-0-0-0-0--000-0-0---------|-4-4-4-4-4-4-4--444-4-4-------|
  : : :   :   :  ::: :             : : :   :   :  ::: :

Verse is the same as Chorus for guitar
Strings part during Verse-
|-------------------|-------------------| 2x
|-------------------|-19-19-17-17-14-14-|
|-19-19-18-18-14-14-|-------------------|
|-------------------|-------------------|
|----------4x-------|--------4x---------|
|-------------------|-------------------|

Post Verse- “Darkness is broken…”
Lead Guitar- 2x
|-------------------------------------------------|
|----15-14-------15-14-------17-16-14----17-16-14-|
|-14-------16-14-------16-14----------14----------|
|-------------------------------------------------|
|-------------------------------------------------|
|-------------------------------------------------|
                                                  |-End of second time  
|-------------------------------------------------|-------------------|
|----19-17-15----19-17-15----15-14-------15-14----|-14~---------------|
|-14----------14----------14-------16-14-------16-|-------------------|
|-------------------------------------------------|-------------------|
|-------------------------------------------------|-------------------|
|-------------------------------------------------|-------------------|
This was really hard to hear, but i'm sure it's pretty close.

Rhythm guitar (or bass)
|-------------------------------------------|
|-------------------------------------------|
|-----------------------------------9/7-7/5-|
|-0000000-77777777-4444444444444444-x/x-x/x-|
|-0000000-77777777-4444444444444444-7/5-5/3-|
|-0000000-77777777-4444444444444444---------|

Repeat Chorus 
Repeat Verse
Repeat Post Verse 2x
End With Chorus

:=Palm Mute

This is an awesome song. 18v rocks. 
*Please Rate*
Добавлено: 03.04.2012
Другие материалы по этой песне:

Страница создана 22.02.2012
http://primanota.ru/eighteen-visions/our-darkest-days-chords.htm
Привет, Гость.
Предлагаем пройти революционный курс по гитаре.
Подарок от PrimaNota.Ru, забирай!