PrimaNota.ru - самый крупный в мире бесплатный архив песенных текстов, аккордов, табулатур и нот


Eighteen Visions - Brokem Hearted - таба, видео

Регистрация Запомнить меня
Войти через:  Facebook Google Twitter Vk Yandex Mail.ru

Eighteen Visions - Brokem Hearted - таба, видео

Печатать
Просмотров: 94
First of all, i will only be tabbing the lead and some other guitar parts. Don't ask me 
tab the Rhythm intro. So this song is tunned a half step down. So its Eb,G#,C#,F#,Bb,Eb 
as some of you write Eb,Ab,Db,Gb,Bb,Eb (from low to high) even though they're both the same.

(i don't know the intro for the rhythm so after that the lead plays this).
Pre-Verse
|--------------------------------|
|------------------------------7-|
|-12~-11~-9~-7~--12~-11~-9~-7~-7-|
|--------------------------------|
|--------------------------------|
|--------------------------------|
 plays this twice

Verse:
|--------------------------------------|
|--------------------------------------|
|--------------------------------------|
|-7-----------7-----7-----7------------| X4
|-5-----------5-----5-----5------------|
|---0-0-0-0-0---0-0---0-0---0-0-0-0-0--|
    . . . . .   . .   . .   . . . . .

Pre-Chorus: Lead
|---------------------------------|
|---------------------------------|
|-7-7-6-7-7-7-7-7-7-7-7-7-7-7-7-7-|
|---------------------------------|
----------------------------------|
|---------------------------------|
            . . . . . . . . . . .

Pre-Chorus: Rhythm
|---------------------------|
|---------------------------|
|---------------------------|
|---------------------------|
|-5-5-5--5-5--5--4-4-4------|
|-3-3-3--3-3--3--2-2-2------|

Chorus: Rhythm
|7----------------------|
|5(X8)-9-------5--------|   X2
|------7(X8)---3(X16----|
  The lead Guitar plays something faint in the background, if you can hear it then tab 
Also a third guitar plays some acoustic.

After the chorus the Lead plays the Pre-Verse while the Rhythm repeats the verse.

Verse: X4
Pre-Chorus: X4
Chorus: X4

Bridge: Rhythm
|--------------------------------------------------|
|--------------------------------------------------|
|--------------------------------------------------|
|--------------------------------------------------|
|-5---------------------------5-5-5--5-5--5--4-4-4-|
|-3(as many times as needed)--3-3-3--3-3--3--2-2-2-|

Bridge: Lead
|-------------------------------------------------|
|-15-15-15-15-15-15-15-15-15-15-15-15-14-14-14-15-|
|-------------------------------------------------|
|-------------------------------------------------|
|-------------------------------------------------|
|-------------------------------------------------|
there is one more part after this which i cant figure out so good luck =)

Some piano plays then the lead plays the verse faintly twice. Followed by the chorus 
twice. Then both guitars play the intro and the Pre-verse.
Добавлено: 25.02.2012
Другие материалы по этой песне:
  • Аккорды и текст

Страница создана 25.02.2012
http://primanota.ru/eighteen-visions/brokem-hearted-chords.htm
Привет, Гость.
Предлагаем пройти революционный курс по гитаре.
Подарок от PrimaNota.Ru, забирай!