PrimaNota.ru - самый крупный в мире бесплатный архив песенных текстов, аккордов, табулатур и нот


Eiffel - Tu Vois Loin - таба, видео

Регистрация Запомнить меня
Войти через:  Facebook Google Twitter Vk Yandex Mail.ru

Eiffel - Tu Vois Loin - таба, видео

Печатать
Просмотров: 134
Авторы музыки: Romain Humeau
Авторы текста: Romain Humeau
Fig.1 :

||-----9-----9-----9-----9-|---10----10----10----10-|
||-------10----------10----|------12----------12----|
||*11----------11----------|11----------11----------|
||*------------------------|------------------------|
||-------------------------|------------------------|
||-------------------------|------------------------|
                                                     

                                                     
|----9-----9-----9-----9-|----9-----9-----9-----9--||
|------11----------11----|-------7-----------9-----||
|10----------10----------|-7-----------9----------*||
|------------------------|------------------------*||
|------------------------|-------------------------||
|------------------------|-------------------------||
                                                     

Fig.2 :
                                                   
|-9----------------------|-9----------------------|
|12----------------------|11----------------------|
|-9-------------11--9----|-9----------------------|
|11-------------------11-|11-------------12-11--9-|
|-9----------------------|-9----------------------|
|------------------------|------------------------|
                                                   

Fig.3 :
                                                   
|----9-----9-----7-----7-|----9-----9-----9-----9-|
|------10-----------9----|------10----------10----|
|-9-----------9----------|11----------11----------|
|------------------------|------------------------|
|------------------------|------------------------|
|------------------------|------------------------|
                                                   

                                                   
|----9-----9-----9-----9-|----9-----9-----9-------|
|------12----------12----|------10----------13-11-|
|12----------12----------|11----------13----------|
|------------------------|------------------------|
|------------------------|------------------------|
|------------------------|------------------------|
                                                   

                                                   
|---12----12----12----12-|----9-----9-----9-----9-|
|------14----------12----|------10----------10----|
|14----------13----------|11----------11----------|
|------------------------|------------------------|
|------------------------|------------------------|
|------------------------|------------------------|
                                                   

                                                   
|---12----12----12----12-|---11----11----11----11-|----9-----9-----9-----9-|
|------10----------10----|------12----------12----|------12----------12----|
|10----------10----------|11----------11----------|12----------12----------|
|------------------------|------------------------|------------------------|
|------------------------|------------------------|------------------------|
|------------------------|------------------------|------------------------|
                                                   



Fig.4 :

|----8-----8-----8-----8-|----7-----7-----7-----7-|
|------10----------10----|-------8-----------8----|
|-9-----------9----------|-9-----------9----------|
|------------------------|------------------------|
|------------------------|------------------------|
|------------------------|------------------------|
                                                   

                                                   
|---14----14----14----14-|---11----11----11----11-|---10----10----10----10-|
|------11----------11----|------11----------11----|------10----------10----|
|11----------11----------|12----------12----------|11----------11----------|
|------------------------|------------------------|------------------------|
|------------------------|------------------------|------------------------|
|------------------------|------------------------|------------------------|
                                                   

                                                                   
|---15----15----15-------|---13----13----13-------|-9^|-9-|-9^|-9-|-9^|-9-|
|------13----------15-12-|------11----------13-10-|10^|10-|10^|10-|10^|10-|
|12----------12----------|10----------10----------|11^|11-|-9^|-9-|11^|11-|
|------------------------|------------------------|11^|11-|11^|11-|11^|11-|
|------------------------|------------------------|-9^|-9-|-0^|-0-|-9^|-9-|
|------------------------|------------------------|---|---|---|---|---|---|
                                          

Intro :

Fig.1 (x 2)

Couplet : Fig.1 (x2)

F#m                        Bm                            Bbm
Tu les sens les courants d'air qui s'faufilent sous tes couettes

                                           D7M         A7M*
Jusqu'aux p'tites mèches qui frangent insolemment ta frontale

F#m                     Bm                            Bbm
Toutes ces pensées agiles qui en traversant les villes

                                 D7M        A7M*            F#m
Sont à deux doigts de s'faire du bien en s'faisant la malle 

Pont 1 : Fig.2

Couplet : Fig.1 (x2)

F#m                   Bm                         Bbm           
Petite fille dans le cuir d'une fronde en lumière

                        D7M                A7M*
A décaniller les chats noirs et les hommes en gris

F#m             Bm                        Bbm
Si l'or a un prix et que ce prix est l'ennui

                             D7M              A7M*
Toi tu s'ras sûrement là pour percuter l'immobile

Pre-refrain : Fig.3

       A                E                 F#m     
Les éclairs de tes yeux crachent à l'infini

           G                             F#m    G#
On ne peut les contempler sans être ébloui

       A                E              F#m
Fluide comme l'air d'un tout nouveau pays

       Dm                        B      G
De la lumière à en déchirer la nuit

Refrain : Fig.1
         F#m
Tu vois loin,

         Bm
Tu vois loin

         Bbm
Tu vois loin

                D7M       A7M*
Beaucoup plus loin que nous


Couplet : Fig.1 (x2)

F#m                       Bm
Et le temps que l'on fragmente en 2002 soucis

Bbm                      D7M           A7M*
Il ne nous avait rien demandé ce vieil ami

F#m                    Bm                         Bbm
Petite conne, gentiment, ton sablier fera le vide

                                    D7M            A7M*
Et nous laissera des heures libres pour s'aimer encore

Fig.3 (x2)

       A                  E               F#m
Les éclairs de tes yeux crachent à l'infini

           G                             F#m   G#
On ne peut les contempler sans être ébloui

       A               E                  F#m
Fluide comme l'air d'un tout nouveau pays

       Dm                        B   G
De la lumière à en déchirer la nuit

Refrain : Fig.1

         F#m
Tu vois loin

         Bm
Tu vois loin

         Bbm
Tu vois loin

                D7M       A7M*
Beaucoup plus loin que nous

Pont : Fig.4

         Am                                       G            F#    Eb    D
Tu vois loin comme quand on ne sait rien et que l'on sent tout

              C5                    G5               A#5        F5           F#m
Et dans la petite cuillère faire glisser l'ordinaire que l'on catapulte au loin

         A     
Tu vois loin

         F#m
Tu vois loin

Pre-refrain : Fig.3 (x2)

       A                  E               F#m
Les éclairs de tes yeux crachent à l'infini

           G                             F#m   G#
On ne peut les contempler sans être ébloui

       A               E                  F#m
Fluide comme l'air d'un tout nouveau pays

       Dm                        B   G
De la lumière à en déchirer la nuit

Refrain : Fig.1 (x2)

         F#m
Tu vois loin

         Bm
Tu vois loin

         Bbm
Tu vois loin

                D7M       A7M*
Beaucoup plus loin que nous

F#m     Bm      Bbm
Loin .. loin .. loin

                D7M       A7M*    A# (X X X 10 11 10)
Beaucoup plus loin que nous
Добавлено: 12.05.2012
Другие материалы по этой песне:

Страница создана 25.03.2012
http://primanota.ru/eiffel/tu-vois-loin-chords.htm
Привет, Гость.
Предлагаем пройти революционный курс по гитаре.
Подарок от PrimaNota.Ru, забирай!