PrimaNota.ru - самый крупный в мире бесплатный архив песенных текстов, аккордов, табулатур и нот


Eiffel - Te Revoir - таба, видео

Регистрация Запомнить меня
Войти через:  Facebook Google Twitter Vk Yandex Mail.ru

Eiffel - Te Revoir - таба, видео

Печатать
Просмотров: 132
Уроки эстрадного вокала в Санкт-Петербурге
Авторы музыки: Romain Humeau
Авторы текста: Romain Humeau
TE REVOIR
BY EIFFEL
FROM THE ALBUM ABRICOTINE
2001
-------------------------
tabbed by AAuuddee@aol.com


NOTE: Here is the tab of a great song
by a great French band that is not famous yet...
I hope they will be famous one day cos they deserve it!


INTRO: starts with keyboards,then comes the guitar

--------------------------------
--------------------------------
------0-------------0--------0--repeat
----2-------------2---2----0----
--3-----3--2----0---------------
-------------3b----------3------

This fill is played on these chords:
C5 / G5 / Am5 / D5


VERSE1:

Guitar1:
--------------------------------
--------------------------------
------0-------------0--------0--repeat
----2-------------2---2----0----
--3-----3--2----0---------------
-------------3b----------3------

Guitar2: comes later
------3-----------0--3--0------3-
----5------------------------3---
--5-----5--4----2----------0-----repeat
-------------5b------------------
---------------------------------
---------------------------------


PRE-CHORUS:

  F   D5  E
--1-------0--
--1-------0--
--2---7---1--
--3---7---2--
--3---5---2--
--1-------0--


CHORUS:

Guitar1:

 C5  G5  Am5  D5
------------------
------------------
--5---------------
--5---5---7---12--repeat
--3---5---7---12--
------3---5---10--

Guitar2:
------3-----------0--3--0------3-
----5------------------------3---
--5-----5--4----2----------0-----repeat
-------------5b------------------
---------------------------------
---------------------------------


VERSE2: an acoustic guitar plays the same as guitar2

Guitar1:
--------------------------------
--------------------------------
------0-------------0--------0--repeat
----2-------------2---2----0----
--3-----3--2----0---------------
-------------3b----------3------

Guitar2:
------3-----------0--3--0------3-
----5------------------------3---
--5-----5--4----2----------0-----repeat
-------------5b------------------
---------------------------------
---------------------------------


PRE-CHORUS:

Guitar1:

  F   D5  E
--1-------0--
--1-------0--
--2---7---1--
--3---7---2--
--3---5---2--
--1-------0--

Guitar2: starts on the E=20
(there is an effect on it)

--16--17--16--12s20--
---------------------
---------------------
---------------------
---------------------
---------------------


CHORUS


BRIDGE1:

  Bm  F   Ab  G   E
--2---1---4---3---0--
--3---1---4---3---0--
--4---2---5---4---1--repeat
--4---3---6---5---2--
--2---3---6---5---2--
------1---4---3---0--


CHORUS:

 C5  G5  Am5  D5
------------------
------------------
--5---------------
--5---5---7---12--repeat
--3---5---7---12--
------3---5---10--


BRIDGE2: there's no guitar here


VERSE3: an acoustic guitar plays the same as guitar2=20

Guitar1:
--------------------------------
--------------------------------
------0-------------0--------0--repeat
----2-------------2---2----0----
--3-----3--2----0---------------
-------------3b----------3------

Guitar2: comes later
------3-----------0--3--0------3------------------------
----5------------------------3--------------------------
--5-----5--4----2----------0-----repeat--7s9--9~-repeat-
-------------5b-----------------------------------------
--------------------------------------------------------
--------------------------------------------------------


CHORUS:

 C5  G5  Am5  D5          C5  G5  Am5
-------------------------------------
-------------------------------------
--5-----------------------5----------
--5---5---7---12--repeat--5---5---7--
--3---5---7---12----------3---5---7--
------3---5---10--------------3---5--


BREAK: lots of noises and larsens,guitar stays on this chord:

  Am
--5--
--5--
--5--
--7--
--7--
--5--


CHORUS: many larsens in the background

 C5  G5  Am5  D5         C5  G5  Am5 =20
-------------------------------------
-------------------------------------
--5-----------------------5----------
--5---5---7---12--repeat--5---5---7--
--3---5---7---12----------3---5---7--
------3---5---10--------------3---5--


To see a list of all my tabs,go to my website:
www.multimania.com/aauudde
     
Добавлено: 19.10.2013
Другие материалы по этой песне:

Страница создана 22.07.2012
http://primanota.ru/eiffel/te-revoir-chords.htm
Привет, Гость.
Предлагаем пройти революционный курс по гитаре.
Подарок от PrimaNota.Ru, забирай!