PrimaNota.ru - самый крупный в мире бесплатный архив песенных текстов, аккордов, табулатур и нот


Eiffel - Quelqu Un - таба, видео

Регистрация Запомнить меня
Войти через:  Facebook Google Twitter Vk Yandex Mail.ru

Eiffel - Quelqu Un - таба, видео

Печатать
Просмотров: 133
Уроки эстрадного вокала в Санкт-Петербурге
Авторы музыки: Romain Humeau
Авторы текста: Romain Humeau
QUELQU'UN
BY EIFFEL
FROM THE ALBUM ABRICOTINE
2001
--------------------------
Tabbed by AAuuddee@aol.com


NOTE: Here is the tab of a great song
by a great French band that is not famous yet...
I hope they will be famous one day cos they deserve it!


INTRO:

guitar1: disto
--19--19------------19--19--19-------------------------
---------19--19--19------------19--19--19--19--19--19--
-------------------------------------------------------repeat
-------------------------------------------------------
-------------------------------------------------------
-------------------------------------------------------

guitar2: disto
  D5
--------------------------------------------------------------------
--------------------------------------------------------------------
--------------------------------------------------------------------
--12--12--12--12---11--11--11--11---12--12--12---11--11--11--11--11-
--12--12--12--12---12--12--12--12---12--12--12---12--12--12--12--12-
--10--10--10--10---10--10--10--10---10--10--10---10--10--10--10--10-
repeat


VERSE1: repeat

guitar1: disto
--19--19------------19--19--19-------------------------
---------19--19--19------------19--19--19--19--19--19--
-------------------------------------------------------repeat
-------------------------------------------------------
-------------------------------------------------------
-------------------------------------------------------

guitar2: disto
  D5
--------------------------------------------------------------------
--------------------------------------------------------------------
--------------------------------------------------------------------
--12--12--12--12---11--11--11--11---12--12--12---11--11--11--11--11-
--12--12--12--12---12--12--12--12---12--12--12---12--12--12--12--12-
--10--10--10--10---10--10--10--10---10--10--10---10--10--10--10--10-
repeat

  Ab5
--------------------------------------------------------------------
--------------------------------------------------------------------
--------------------------------------------------------------------
--13--13--13--13---11--11--11--11---13--13--13---11--11--11--11--11-
--11--11--11--11---11--11--11--11---11--11--11---11--11--11--11--11-
--------------------------------------------------------------------


CHORUS: disto + repeat

  E5  Bb5
----------
----------
--9-------
--9---8--- x2
--7---8---
------6---

  B5  Bb5
----------
----------
----------
--9---8--- x2
--9---8---
--7---6---


VERSE2: same as verse1


CHORUS


BRIDGE:disto

 Eb5 E5  B5  C5  D5
---------------------
---------------------
--8---9---4---5---7-- x2
--8---9---4---5---7--
--6---7---2---3---5--
---------------------


VERSE3: repeat

guitar1: disto (only on guitar2 Ab5)
--19--19------------19--19--19-------------------------
---------19--19--19------------19--19--19--19--19--19--
-------------------------------------------------------repeat
-------------------------------------------------------
-------------------------------------------------------
-------------------------------------------------------

guitar2: disto
  D5
-------------------
-------------------
-------------------
--12--12--12--12---repeat
--12--12--12--12---
--10--10--10--10---

  Ab5
------------------
------------------
------------------
--6---6---6---6---repeat
--6---6---6---6---
--4---4---4---4---


CHORUS + different noises in the background


END: as if the CD was scratched

  E5  B5  E5  B5
-----------------
-----------------
--9-------9------
--9---9---9---9--
--7---9---7---9--
------7-------7--


To see a list of my tabs,have a look at my website:
www.multimania.com/aauuddee
     
Добавлено: 21.06.2013
Другие материалы по этой песне:
  • Аккорды и текст

Страница создана 21.06.2013
http://primanota.ru/eiffel/quelqu-un-chords.htm
Привет, Гость.
Предлагаем пройти революционный курс по гитаре.
Подарок от PrimaNota.Ru, забирай!