PrimaNota.ru - самый крупный в мире бесплатный архив песенных текстов, аккордов, табулатур и нот


Eiffel - Jai Pousse Trop Vite - таба, видео

Регистрация Запомнить меня
Войти через:  Facebook Google Twitter Vk Yandex Mail.ru

Eiffel - Jai Pousse Trop Vite - таба, видео

Печатать
Просмотров: 94
Авторы музыки: Romain Humeau
Авторы текста: Romain Humeau
J'AI POUSSE TROP VITE
BY EIFFEL
FROM THE ALBUM "ABRICOTINE" (2001)


Tabbed by Neildrad (neildrad@wanadoo.fr)

-------------------------------------------------------------------
NOTE:It's an easy-to-play song, but I had problems to find some
of the chords. The chorus sounds close to the music, but I'm not
100% sure.
If you have any suggestion, don't hesitate to e-mail me.
Oh: I tabbed this song from an acoustic version, recorded on the
radio (an excellent version, clean and brilliant).
-------------------------------------------------------------------


guitar 1 (acoustic) plays the chords
guitar 2 (electric) plays riffs and solos


There are a lot of transitions between the chords. I used a special
notation to simplify the file:

(Bm*) means:

       Bm

---2---2---2---0---
---2---3---2---0---
---4---4---4---0---
---4---4---4---0---
---2---2---2-------
---2---2---2-------


(D*) means:                  (D**) means:

   D   D4sus   D               D4sus   D

---2-----3-----2-----0---    ---3r2----2----0---
---3-----3-----3-----0---    ---3------3----0---
---2-----2-----2-----0---    ---2------2----0---
---0-----0-----0-----0---    ---0------0----0---
---x-----x-----x---------    ---x------x--------
---x-----x-----x---------    ---x------x--------



(A*) means:               (A2*) means:

   A   A4sus A                  A2

---0----0----0----0---    ---5---5---5---0---
---2----3----2----0---    ---5---6---5---0---
---2----2----2----0---    ---7---7---7---0---
---2----2----2----0---    ---7---7---7---0---
---0----0----0--------    ---5---5---5-------
---0----0----0--------    ---5---5---5-------


(See the full list of the chords at the end of the file)



verse 1:
-------


Em          Bm           (Bm*)
   J'ai poussé..........

D  (D*)             A            (A*)
...............................

C       Bm     (Bm*)     F       G#
.....................................

   Bm   (Bm*)       F#
....................âge



verse 2:
-------

Em       Bm          (Bm*)
  J'ai..............

D   (D*)    A            (A*)
......................

C       Bm       (Bm*)
................

F     Bm  (Bm*)          F#     F#m
......................manons


bridge:
------

F#4sus                               G2
      Comme...........................

                           F#4sus
..................................

                        G2
...........................

A    A4sus     Bm     (Bm*)
.............crash


chorus:
------

         D             (D**)
J'ai..................

G                    B2
...........................

Em2                        A2
.........................

      (A2*)     Bm
............


(repeat without the final Bm)




verse 3 (same chords as verse 1)
-------

verse 4 (same chords as verse 2)
-------

bridge
------

chorus
------

Solo 1  (guitar 1 plays: Em Bm D A C Bm F G#(pulse it) Bm F#(pulse it))
------

bridge
------

...avalanche"  (guitar 2 plays riff 1)

...manches" (guitar 2 plays riff 2)


chorus (and solo 2 over it) to the end
------

---------------------------------------------------------------

            riff 1                  riff 2
            ------                  ------

E-----------10---9---------|------10---9--------------------|
B--------------------8-----|---------------8---5------------|
G--------------------------|--------------------------------|
D--------------------------|--------------------------------|
A--------------------------|--------------------------------|
E--------------------------|--------------------------------|


SOLO 1 and SOLO 2
-----------------

Play alternatively (1) or (2), a bunch of times...


                    (1)
E-------------------------------------------|
B---6b7--5--6b7--5--6b7--6b7--5--6b7--5-----|
G-------------------------------------------|
D-------------------------------------------|
A-------------------------------------------|
E-------------------------------------------|

                    (2)
E-------------------------------------------|
B--6b7--5--6b7--5--6b7--5-6b7--5----6b7--5--|
G-------------------------------------------|
D-------------------------------------------|
A-------------------------------------------|
E-------------------------------------------|


The SOLO 2 (and the song with it) ends like this:

E--------------------------------------------------------
B---6b7^7^7^7^7^^^7^7^7^7^7r6--5--6b7--5--6b7--6b7^7^7---
G--------------------------------------------------------
D--------------------------------------------------------
A--------------------------------------------------------
E--------------------------------------------------------

E-------------------------------------------------------T
B---7b8^8^8-9s/12--12--12--12--15-15-15-15---18b19------H
G-------------------------------------------------------E
D-------------------------------------------------------E
A-------------------------------------------------------N
E-------------------------------------------------------D




-----------------------------------------------------------
Chords:
-------

     Em    Bm    D     D4sus A     A4sus C     F     F#

 E---0-----2-----2-----3-----0-----0-----0-----1-----2---
 B---0-----2-----3-----3-----2-----3-----1-----1-----2---
 G---0-----3-----2-----2-----2-----2-----0-----2-----3---
 D---2-----4-----0-----0-----2-----2-----2-----3-----4---
 A---2-----4-----x-----x-----0-----0-----3-----3-----4---
 E---0-----2-----x-----x-----0-----0-----0-----1-----2---


     F#m  F#4sus G     G#    Em2   A2    G2    B2

 E---2-----2-----3-----4-----7-----5-----3-----7---
 B---2-----2-----0-----4-----7-----6-----3-----7---
 G---2-----4-----0-----5-----9-----7-----4-----8---
 D---4-----4-----0-----6-----9-----7-----5-----9---
 A---4-----4-----2-----6-----7-----5-----5-----9---
 E---2-----2-----3-----4-----7-----5-----3-----7---


     
Добавлено: 23.06.2013
Другие материалы по этой песне:

Страница создана 14.06.2012
http://primanota.ru/eiffel/jai-pousse-trop-vite-chords.htm
Привет, Гость.
Предлагаем пройти революционный курс по гитаре.
Подарок от PrimaNota.Ru, забирай!