PrimaNota.ru - самый крупный в мире бесплатный архив песенных текстов, аккордов, табулатур и нот


Eidola - Omni First Temple - таба, видео

Регистрация Запомнить меня
Войти через:  Facebook Google Twitter Vk Yandex Mail.ru

Eidola - Omni First Temple - таба, видео

Печатать
Просмотров: 41
Tabbed by: Joshua Garcia (joshuag523@aol.com)

Tabs for the song: Omni: First Temple by Eidola
Please rate and let me know if you have any corrections. Thank you.


Tuning: Standard (E A D G B E)


Intro
Guitar 1 (Left):
E||--------------------------------------------------------------------|
B||----------------------10---11---------------------------------------|
G||----3-----7-----5------------------------------------4-----4-5-7-8--|
D||------1-----5-----3------------------6-----6~----------5------------|
A||--3-----3-----6-----5----8-------------6---6~------5-----5----------|
E||-----------------------------------4-----4-4~-----------------------|


E||----------------------------------------------------------------------------|
B||----------------------10---11---13------------------------------------------|
G||----3-----7-----5-----------------------------------------------------------|
D||------1-----5-----3------------------6-6---6~--6-6-6---6~--6-5-5---5-5-5-5--|
A||--3-----3-----6-----5----8----8------6-6---6~--6-6-6---6~--6-5-5---5-5-5-5--|
E||-------------------------------------4-4---4~--4-4-4---4~--4-3-3---3-3-3-3--|


E||--------------------------------------------------------------------|
B||----------------------10---11\--------------------------------------|
G||----3-----7-----5------------------------------------4-----4-5-7-8--|
D||------1-----5-----3------------------6-----6~----------5------------|
A||--3-----3-----6-----5----8-------------6---6~------5-----5----------|
E||-----------------------------------4-----4-4~-----------------------|


E||-----------------------------------------------------------------------------|
B||----------------------10---11----13------------------------------------------|
G||----3-----7-----5------------------------------------------------------------|
D||------1-----5-----3-------------------6-6---6~--6-6-6---6~--6-------------5--|
A||--3-----3-----6-----5----8----10------6-6---6~--6-6-6---6~--6-------------5--|
E||--------------------------------------4-4---4~--4-4-4---4~--4-3-3-3-3-3-3-3--|
                                                                 . . . . . .

E||------------------------------------|
B||------------------------------------|
G||----3-----7-----5-------------------|
D||------1-----5--------6-6-6-6-5-5-5--|
A||--3-----3-----6------6-6-6-6-5-5-5--|
E||---------------------4-4-4-4-3-3-3--|


Guitar 2 (Right):
E||------------------------11---10---------------------------------------|
B||----8-----11-----8/13------8----8----8------8----------6---------6-8--|
G||--5---5/7----7\5------8----------------8------8----8-----7---8-7------|
D||----------------------------------10-----10-----10---9-----9----------|
A||----------------------------------------------------------------------|
E||----------------------------------------------------------------------|


E||------------------------11---10---13---------------------------------------------------|
B||----8-----11-----8/13------8----8------8--8----8~------8--8----8~------6-6---6-6-6-6\--|
G||--5---5/7----7\5------8----------------8--8----8~------8--8----8~------7-7---7-7-7-7\--|
D||---------------------------------------10-10---10~---xx10-10---10~---xx9-9---9-9-9-9\--|
A||---------------------------------------------------------------------------------------|
E||---------------------------------------------------------------------------------------|
                                                                         (^ Pro-Tip: It's easier to switch with
                                                                                     your third digit and spread
E||------------------------11---10---------------------------------------|           rather than using your
B||----8-----11-----8/13------8----8----8------8----------6---------6-8--|           pinky here.)
G||--5---5/7----7\5------8----------------8------8----8-----7---8-7------|
D||----------------------------------10-----10-----10---9-----9----------|
A||----------------------------------------------------------------------|
E||----------------------------------------------------------------------|


E||------------------------11---10---13--------------------------------------------------|
B||----8-----11-----8/13------8----8------8--8----8~------8--8----8~--------------6-6-6--|
G||--5---5/7----7\5------8----------------8--8----8~------8--8----8~------7-7-7-7-7-7-7--|
D||---------------------------------------10-10---10~---xx10-10---10~---xx9-9-9-9-9-9-9--|
A||--------------------------------------------------------------------------------------|
E||--------------------------------------------------------------------------------------|
                                                                          . . . . . .

E||----------------------------------------------|
B||-----8------16-------15----8--8--8--8--6-6-6--|
G||-------8/12----12----------8--8--8--8--7-7-7--|
D||--10--------------15-------10-10-10-10-9-9-9--|
A||----------------------------------------------|
E||----------------------------------------------|




Tablature Legend
----------------
 h   hammer-on
 p   pull-off
 b   bend
 pb  pre-bend
 r   release bend
 ~   hold / vibrato
 .   palm mute
 /   slide up
 \   slide down
 *   pinch harmonic
 '   natural harmonic
 x   mute note
 T   tap
Добавлено: 23.09.2015
Вам также может быть интересно:
Другие материалы по этой песне:
  • Аккорды и текст

Страница создана 23.09.2015
http://primanota.ru/eidola/omni-first-temple-chords.htm
Привет, Гость.
Предлагаем пройти революционный курс по гитаре.
Подарок от PrimaNota.Ru, забирай!