PrimaNota.ru - самый крупный в мире бесплатный архив песенных текстов, аккордов, табулатур и нот


Eidola - Omega Third Temple - таба, видео

Регистрация Запомнить меня
Войти через:  Facebook Google Twitter Vk Yandex Mail.ru

Eidola - Omega Third Temple - таба, видео

Печатать
Просмотров: 42
Уроки эстрадного вокала в Санкт-Петербурге
Tabbed by: Joshua Garcia (joshuag523@aol.com)

Tabs for the song: Omega: Third Temple by Eidola
Please rate and let me know if you have any corrections. Thank you.

Not too sure about Guitar 2, but I tried.


Tuning: Drop B (B F# B E G# C#)


Intro
Guitar 1:
C#||-------------------------------------------------------------------------------------------------------|
G#||-------------------------------------------------------------------------------------------------------|
E ||-------------------------------------------------------------------------------------------------------|
B ||-------------------------------------------------------------------------------------------------------|
F#||-------------------------------------------------------------------------------------------------------|
B ||--000000000000000000000000000000000000000000000000000000000000000000000000000000000000000000000000000--|
      ..................................................................................................


C#||------------------------------------------------|-------------------------------------------|
G#||------------------------------------------------|---------------------------11--11--10------|
E ||--12---0---7h10p0-5h7p5p0-7---------------------|--12---0---7h10p0-5h7p5p0--12--12--10--10--|
B ||------------------------------8---p7--8p7-------|---------------------------------------10--| x4
F#||------------------------------------------8h10--|-------------------------------------------|
B ||------------------------------------------------|-------------------------------------------|


Gutiar 2:
C#||---------------15-------------------------------|------------------15--------------------------|
G#||--------------------15--16----------------------|-----------------------15--16-----------------|
E ||--12---15---------------------14h15---14--------|-----12---15--------------------8--8--10--10--|
B ||------------12--------12---12--------------15~--|--xx-----------12--------12--12-8--8--10--10--| x2
F#||------------------------------------------------|--------------------------------6--6--8---8---|
B ||------------------------------------------------|----------------------------------------------|




Tablature Legend
----------------
 h   hammer-on
 p   pull-off
 b   bend
 pb  pre-bend
 r   release bend
 ~   hold / vibrato
 .   palm mute
 /   slide up
 \   slide down
 *   pinch harmonic
 '   natural harmonic
 x   mute note
 T   tap
Добавлено: 23.09.2015
Вам также может быть интересно:
Другие материалы по этой песне:
  • Аккорды и текст

Страница создана 23.09.2015
http://primanota.ru/eidola/omega-third-temple-chords.htm
Привет, Гость.
Предлагаем пройти революционный курс по гитаре.
Подарок от PrimaNota.Ru, забирай!