PrimaNota.ru - самый крупный в мире бесплатный архив песенных текстов, аккордов, табулатур и нот


Ehud Banai - Mami - аккорды и текст, видео

Регистрация Запомнить меня
Войти через:  Facebook Google Twitter Vk Yandex Mail.ru

Ehud Banai - Mami - аккорды и текст, видео

Печатать
Просмотров: 39
Mami
Ehud Banai
פתיחה ובבית:
e|---------------------------------------------------------------------------|
B|---------------------------------------------------------------------------|
G|---------------------------------------------------------------------------|
D|---------------------------------6-7-7-7-7-7-7-----6-7-9-6-7---7-6---6-----|
A|---7---7---7---7---7---------7s8----------------0------------------8---8-7-|
E|-0---0---0---0---0---0----0------------------------------------------------|

e|-------------------------------------------------------------------|
B|-------------------------------------------------------------------|
G|-------------------------------------------------------------------|
D|-6------6------------------------------------------5-7-7-7---5-----|
A|---8-7----8-7--7-7-7---7---7------7-7-7-7-7-7-7--8---------8---8-7-|
E|---------------------0---0------0----------------------------------|

e|----------------------------------------------------------------------|
B|----------------------------------------------------------------------|
G|----------------------------------------------------------------------|
D|------------------5-7-7-7---5-------------------------5-7-7-7---5-----|
A|-7-7-7-8-7-5-7--8---0-----8---8-7----7-7-7-7-7-7-7--8---0-----8---8-7-|
E|-----------------------------------0----------------------------------|

e|--------------------------------------|
B|--------------------------------------|
G|--------------------------------------|
D|-------------------5-7-7-7---5--------|
A|-7-7-7-8-7-5-7---8---0-----8---8-7----|
E|------------------------------------0-|
פזמון:
          Em
מאמי יא מאמי
  Em        Am
תפתחי את הרגליים
          Em
לשבעה מדוכאים
  Em        Am
שבעה פלסטינאים
x2
          G                 F  
עשרים שנות כיבוש, יותר לא נמתין
                        Am 
בזיקפה ובזרע נגאל את פלסטין
          G                 F  
עשרים שנות כיבוש, יותר לא נמתין
                        Am 
בזיקפה ובזרע נגאל את פלסטין
x2
 Bb         Am
הקשיבו עוד רגע
  Dm          C            Am
לפני שאתם מורידים את המכנסיים
     Am  Dm     Bb   
ישמעאל ויצחק אחים היו
 Dm            C 
ואב לנו אחד בשמים
       Bb            Dm 
הולידו אתכם במחנה פליטים
               C
חם בקיץ בחורף קר
        Bb            Dm
הולידו אותי בעיירת פיתוח
               C
נולדנו אותו הדבר
        Bb            Dm
כמו פועל ערבי ניצלו אותי
                  C  
בתחנת הדלק מעבר לדלפק
         Bb            Dm 
אתם התבאסתם גם אני התבאסתי
               C
אין אחד שלא נדפק
         Em 
מאמי יא מאמי
 Em                   Am        
סיפורך העצוב הכניס דיכאון לליבנו
  Am         
רק שאין ברירה
Am          
נחושים אנחנו
 Em                 
הלילה נגאל את כבודנו
   Em                      Am
גירשת את ילדינו בשם הדמוגרפיה
  Em              Am          
גזלת את שדותינו בשם הגיאוגרפיה
   Em         Am             
סגרת את בתי הספר בשם הפדגוגיה
  Am        G  F                   
קראת לנו נאצים וג'וקים מתוך דמגוגיה
  Am           G  F                    
נדפוק אותך מאמי יא מאמי מתוך אידאולוגיה
פזמון
 Bb         Am
הקשיבו עוד רגע
  Dm          C            Am
לפני שאתם מורידים את המכנסיים
     Am  Dm     Bb   
ישמעאל ויצחק אחים היו
 Dm            C 
ואב לנו אחד בשמים
           C        Bb        Dm
לא ידי הילדה שלי גירשו את ילדיכם
              C        Bb          Dm
לא הפה שלי שהיה חתום אמר ג'וקים עליכם
              C        Bb           Dm  
לא הרגליים העייפות שלי צעדו בחברון ובשכם
              C               Bb          Dm
ולא בעלי בכיסא הגלגלים הוא הסיוט הציוני שלכם
         Em 
מאמי יא מאמי
            Em 
נדפוק כי נדפקנו
Em Em/F Em Em/F Em    Em/F             Em 
השליטים שלך הם הטרגדיה שלנו
x2
        G             F 
העם הפלסטיני שואף לחופשי
                     Am    
אל תקחי את האונס באופן אישי
          G                 F  
עשרים שנות כיבוש, יותר לא נמתין
G F                       Am   
בזיקפה ובזרע נגאל את פלסטין
                      Am   
בזיקפה ובזרע נגאל את פלסטין
Добавлено: 10.10.2015
Вам также может быть интересно:
Другие материалы по этой песне:
  • Аккорды и текст

Страница создана 10.10.2015
http://primanota.ru/ehud-banai/mami-chords.htm
Привет, Гость.
Предлагаем пройти революционный курс по гитаре.
Подарок от PrimaNota.Ru, забирай!