PrimaNota.ru - самый крупный в мире бесплатный архив песенных текстов, аккордов, табулатур и нот


Ehud Banai - Havi Lach Yaldati Haktana - таба

Регистрация Запомнить меня
Войти через:  Facebook Google Twitter Vk Yandex Mail.ru

Ehud Banai - Havi Lach Yaldati Haktana - таба

Печатать
Просмотров: 19
      Ebm                        B/Ebm            C#     Ebm            
e|-------------------------------------------------------------------6-|
B|-----4---6---4---4h6--7-4-6---------4-----------4--6---4-------4---7-|
G|-3h6-------6-------------------3s4----6-4---3h6------6-------6-----8-|
D|---------------------------------------------------------------------|
A|---------------------------------------------------------------------|
E|---------------------------------------------------------------------|

   Ebm                        B/Ebm           C#     Ebm 
e|-6----------------------------------------------------|
B|------4h6--7-4-6------6---4-----4---4-------4--6---4--|
G|--------------------6---3---4-----6-----3h6------6----|
D|------------------------------------------------------|
A|------------------------------------------------------|
E|------------------------------------------------------|

Ebm  C#   B/Ebm           Ebadd9   Ebm    
מה אביא   ילדתי הקטנה    מה אביא   לך מתנה
Ebm  C#  B/Ebm      Ebm   Ebadd9   Ebm    
מה אביא    ילדתי הקטנה   מה אביא   לך מתנה
Ebm     C#   B/Ebm             Ebadd9     Ebm    
אביא לך     שיר אוהבים     אביא לך     אור כוכבים
Ebm   C#      B/Ebm        Ebm  Ebadd9    Ebm    
אביא לך     רוח של ים     אביא לך     את כל העולם

סולו:

   Ebm               B/Ebm                B                   C#      Ebm
e|-----------------------------------------------------6----------------|
B|-------4---6---4---4h6--7-4-6-----4---4------4---4----------4---6---4-|
G|-3h6---------6------------------6---6---4------6--------3h6-------6---|
D|----------------------------------------------------------------------|
A|----------------------------------------------------------------------|
E|----------------------------------------------------------------------|

Ebm    C#       B/Ebm                   Ebm    
אביא לך    צחוק ילדים    שיבהיל    את כל הפחדים
Ebm    C#     B/Ebm                   Ebm    
אביא לך     בשתי ידי    אביא לך     את כל חיי

סולו:

          Ebm                                         B           
e|-6-4----4--------------4---------------------------------------|
B|-----7------7-6--6h7------7-6--6h7---6-4-6---6-4----4----6---4-|
G|-------------------------------------------------6---------6---|
D|---------------------------------------------------------------|
A|---------------------------------------------------------------|
E|---------------------------------------------------------------|

      C#     Ebm                                                
e|---------------6--6-4----4--------------4--------------------|
B|-----4--6---4---------7------7-6--6h7------7-6--6h7---6-4-6--|
G|-3h6------6--------------------------------------------------|
D|-------------------------------------------------------------|
A|-------------------------------------------------------------|
E|-------------------------------------------------------------|

         B                   C#      Bb                      B  
e|-------------------------------------------------------------|
B|-6-4----4----6---4------4-4h6---4----------------------------|
G|-----6---------6------6-----------4-3------3---4---3---3-4-4-|
D|-----------------------------------------6-------6-----------|
A|-------------------------------------------------------------|
E|-------------------------------------------------------------|

                C#               Ebm              
e|---------------------------------------------6-|
B|-----------------4-------------4---6---4---4---|
G|-6-3-4----4-6-6----4-6-----3h6-------6---------|
D|-----------------------------------------------|
A|-----------------------------------------------|
E|-----------------------------------------------|

Ebm C#              B                            Ebm    
את הדרך אלייך    אהפוך לתמונה    ואביא לך אותה    במתנה
Ebm    C#                B                              Ebm    
את הדרך אלייך    אכתוב לתוך שיר    ואביא לך אותו     בבוקר בהיר

סולו:

          Ebm                             
e|-6-4----4------------4-----------------|
B|-----7------7-6--7------7-6--6---7-4-6-|
G|---------------------------------------|
D|---------------------------------------|
A|---------------------------------------|
E|---------------------------------------|

       B                    C#      Ebm       
e|-------------------------------------------|
B|-------4---4-6---4--------4---6---4------4-|
G|-6-6-6---6-----6------3-6-------6------6---|
D|-------------------------------------------|
A|-------------------------------------------|
E|-------------------------------------------|

Ebm    C#               B                              Ebm    
כל הדרך אלייך     אכתוב את השיר    ואביא לך אותו    בבוקר בהיר

סולו:

          Ebm                                         B           
e|-6-4----4--------------4---------------------------------------|
B|-----7------7-6--6h7------7-6--6h7---6-4-6---6-4----4----6---4-|
G|-------------------------------------------------6---------6---|
D|---------------------------------------------------------------|
A|---------------------------------------------------------------|
E|---------------------------------------------------------------|

      C#     Ebm                                    B              
e|----------------------------------6---------------------------6-|
B|-----4--6---4---------4---6---4------4h6--7-4-6-------4---4-----|
G|-3h6------6-----3h6---------6---------------------4-----6-------|
D|----------------------------------------------------------------|
A|----------------------------------------------------------------|
E|----------------------------------------------------------------|

       C#      Ebm
e|---------------|
B|-----4---6---4-|
G|-3h6-------6---|
D|---------------|
A|---------------|
E|---------------|
Добавлено: 10.10.2015
Вам также может быть интересно:
Другие материалы по этой песне:
  • Аккорды и текст

Страница создана 10.10.2015
http://primanota.ru/ehud-banai/havi-lach-yaldati-haktana-chords.htm
Привет, Гость.
Предлагаем пройти революционный курс по гитаре.
Подарок от PrimaNota.Ru, забирай!