PrimaNota.ru - самый крупный в мире бесплатный архив песенных текстов, аккордов, табулатур и нот


Egotrippi - Vuosi Nolla - аккорды и текст, видео

Регистрация Запомнить меня
Войти через:  Facebook Google Twitter Vk Yandex Mail.ru

Egotrippi - Vuosi Nolla - аккорды и текст, видео

Печатать
Просмотров: 122
Авторы музыки: Mikki Kauste
Авторы текста: Mikki Kauste
Vuosi Nolla
Egotrippi
Egotrippi - Vuosi Nolla


Standard tuning


  D#m/F#      E6      G#7Msus4     
e|-----|   e|--0--|   e|-----|
B|--4--|   B|--2--|   B|--4--|
G|--3--|   G|--1--|   G|--6--|
D|--4--|   D|--2--|   D|--5--|
A|-----|   A|--2--|   A|--6--|
E|--2--|   E|--0--|   E|--4--|


Intro:

   G#m                                             D#m/F#                  
E|-11----------11----------11----------14----------11----------11----------11----------11----------|
B|----12----12----12----12----12----12----12----12----11----11----11----11----11----11----11----11-|
G|-------13----------13----------13----------13----------11----------11----------11----------11----|
D|-------------------------------------------------------------------------------------------------|
A|-------------------------------------------------------------------------------------------------|
E|-------------------------------------------------------------------------------------------------|
   E6                                              D#m/F#                  
E|-11----------11----------11----------11----------11----------11----------11----------11----------|
B|----12----12----12----12----12----12----12----12----11----11----11----11----11----11----11----11-|
G|-------13----------13----------13----------13----------11----------11----------11----------11----|
D|-------------------------------------------------------------------------------------------------|
A|-------------------------------------------------------------------------------------------------|
E|-------------------------------------------------------------------------------------------------|


Verse 1 -guitar picking pattern (2 times):
   G#m                                             D#m/F#                  
E|-11----------11----------11----------11----------11----------11----------11----------11----------|
B|----12----12----12----12----12----12----12----12----11----11----11----11----11----11----11----11-|
G|-------13----------13----------13----------13----------11----------11----------11----------11----|
D|-------------------------------------------------------------------------------------------------|
A|-------------------------------------------------------------------------------------------------|
E|-------------------------------------------------------------------------------------------------|
   E6                                  G#m                     G#7Msus4  
E|-11-------11-------11-------11-------11----------11----------9----------9-----------|
B|----9---9----9---9----9---9----9---9----12----12----12----12---11----11---11----11--|
G|------9--------9--------9--------9---------13----------13---------12---------12-----|
D|------------------------------------------------------------------------------------|
A|------------------------------------------------------------------------------------|
E|------------------------------------------------------------------------------------|


G#m             D#m/F#*  
Tämä on vuosi nolla
E6*                 G#m* G#7Msus4  * 
tähän se päättyy ja al - kaa
G#m             D#m/F#   
tämä on lähtölaukaus
E6                    G#m  G#7Msus4   
ja maaliintulo samaan ai - kaan



Chorus:

Bsus4  B 
Au  -  keaa,
                   F#sus4  F#
tämäkin vuosi joka kul  -  jetaan
Bsus4  B
au  -  keaa,
                      F#sus4 F#
on tämä se vuosi joka muis - tetaan

       C#m
Olkoon niin,
                    B   F#
jotakin täytyy aina päättää
       C#m
olkoon niin,
                  B  F#
jotakin oikeaa ja väärää



Verse 2:

G#m               D#m/F#  
Näen jälleen unia
E6                   G#m  G#7Msus4  
jotka vainoaa pitkän ai - kaa
G#m                D#m/F#  
niissä kannan kuvia
E6                      G#m G#7Msus4  
ja aina putoan johonkin paikkaan



Chorus:

Bsus4  B 
Au  -  keaa,
                   F#sus4  F#
tämäkin vuosi joka kul  -  jetaan
Bsus4  B
au  -  keaa,
                      F#sus4 F#
on tämä se vuosi joka muis - tetaan

       C#m
Olkoon niin,
                    B   F#
jotakin täytyy aina päättää
       C#m
olkoon niin,
                  B  F#
jotakin oikeaa ja väärää


            C#m   E   B  F#
Olkoon niin.
            C#m   E   B  F#
Olkoon niin.

       C#m
Olkoon niin,
E                   B   F#
jotakin täytyy aina päättää
       C#m
olkoon niin,
E                 B  F#
jotakin oikeaa ja väärää


The ending (played with picking tabbed below):

G#m             D#m/F#  
Tämä on vuosi nolla
E6                  G#m  G#7Msus4   
tähän se päättyy ja al - kaa

   G#m                                             D#m/F#                  
E|-11----------11----------11----------11----------11----------11----------11----------11----------|
B|----12----12----12----12----12----12----12----12----11----11----11----11----11----11----11----11-|
G|-------13----------13----------13----------13----------11----------11----------11----------11----|
D|-------------------------------------------------------------------------------------------------|
A|-------------------------------------------------------------------------------------------------|
E|-------------------------------------------------------------------------------------------------|
   E6                                  G#m                     G#7Msus4  
E|-11-------11-------11-------11-------11----------11----------9-|
B|----9---9----9---9----9---9----9---9----12----12----12----12---|
G|------9--------9--------9--------9---------13----------13------|
D|---------------------------------------------------------------|
A|---------------------------------------------------------------|
E|---------------------------------------------------------------|



Hyvää musaa hei.



Добавлено: 08.10.2015
Другие материалы по этой песне:
  • Аккорды и текст

Страница создана 08.10.2015
http://primanota.ru/egotrippi/vuosi-nolla-chords.htm
Привет, Гость.
Предлагаем пройти революционный курс по гитаре.
Подарок от PrimaNota.Ru, забирай!