PrimaNota.ru - самый крупный в мире бесплатный архив песенных текстов, аккордов, табулатур и нот


Egotrippi - Posteljooni - таба, видео

Регистрация Запомнить меня
Войти через:  Facebook Google Twitter Vk Yandex Mail.ru

Egotrippi - Posteljooni - таба, видео

Печатать
Просмотров: 121
-------------------------------------------------------------------------
POSTELJOONI - Egotrippi
-------------------------------------------------------------------------
Tabbed by: Kengus

Standard tuning

INTRO
   Badd4
e|-------0----------|
B|---4-------4------|
G|-----4---------4--|  x4
D|-------------4----|
A|-2-------2--------|
E|------------------|

VERSES
   Badd4
e|-------0----------------0----------------0----------------0----------|
B|---4-------4--------4-------4--------4-------4--------4-------4------|
G|-----4---------4------4---------4------4---------4------4---------4--|
D|---------4---4------------4---4------------4---4------------4---4----|
A|-2----------------2----------------2----------------2----------------|
E|---------------------------------------------------------------------|
   Badd4/E                           C#m9
e|-------0----------------0----------------0----------------0----------|
B|---4-------4--------4-------4--------4-------4--------4-------4------|
G|-----4---------4------4---------4------4---------4------4---------4--|
D|---------2---2------------2---2------------2---2------------2---2----|
A|-----------------------------------4----------------4----------------|
E|-0----------------0--------------------------------------------------|
   Badd4
e|-------0----------------0----------------0----------------0----------|
B|---4-------4--------4-------4--------4-------4--------4-------4------|
G|-----4---------4------4---------4------4---------4------4---------4--|
D|---------4---4------------4---4------------4---4------------4---4----|
A|-2----------------2----------------2----------------2----------------|
E|---------------------------------------------------------------------|
   Badd4/E                           C#m9
e|-------0----------------0----------------0----------------0----------|
B|---4-------4--------4-------4--------4-------4--------4-------4------|
G|-----4---------4------4---------4------4---------4------4---------4--|
D|---------2---2------------2---2------------2---2------------2---2----|
A|-----------------------------------4----------------4----------------|
E|-0----------------0--------------------------------------------------|
   Badd4
e|-------0----------------0----------------0----------------0----------|
B|---4-------4--------4-------4--------4-------4--------4-------4------|
G|-----4---------4------4---------4------4---------4------4---------4--|
D|---------4---4------------4---4------------4---4------------4---4----|
A|-2----------------2----------------2----------------2----------------|
E|---------------------------------------------------------------------|

CHORUS
   C#m9                             Badd4/E
e|-------0----------------0----------------0----------------0----------|
B|---4-------4--------4-------4--------4-------4--------4-------4------|
G|-----4---------4------4---------4------4---------4------4---------4--|
D|-------------2----------------1----------------2---------------------|
A|-4-------4--------4-------4-------------------------------------2----|
E|-----------------------------------0-------0--------0-------0--------|
  C#7omit3  D#m#5    Badd4/E                           Badd4
e|-------------------------0----------------0----------------0----------|
B|-------0--------0----4-------4--------4-------4--------4-------4------|
G|-----6--------4--------4---------4------4---------4------4---------4--|
D|---6--------4--------------2---2------------2---2------------4---4----|
A|-4--------6------------------------------------------2----------------|
E|-------------------0----------------0---------------------------------|

e|-------0----------------0----------------0----------|
B|---4-------4--------4-------4--------4-------4------|
G|-----4---------4------4---------4------4---------4--|
D|---------4---4------------4---4------------4---4----|
A|-2----------------2----------------2----------------|
E|----------------------------------------------------|

INTRO
Badd4

VERSE1
Badd4
Posteljooni matkallasi, kirjeitä kannat repussasi
Badd4/E           C#m9
  Aamun tunneilla, auringon noustessa
Badd4
Siltaa pitkin pyörälläs, saavut jälleen reitilläs
      Badd4/E                      C#m9           Badd4
Olkoon vuoksi taikka luode, tuotko jotain mulle

CHORUS
         C#m9                         Badd4/E
Kiiruhda, kiiruhda ovelleni, tuo mulle viesti tytöltäni
        C#7omit3       D#m#5 Badd4/E  Badd4
Tuo mulle jotain, mistä pitää kii

VERSE2
Badd4
Posteljooni matkaa teet, pihat, polut, hiekkatiet
    Badd4/E           C#m9
Näät aamunkoitteessa, auringon noustessa
Badd4
 Ovet auki avaimilla, luokseni voit aina tulla
Badd4/E         C#m9            Badd4
   Kuulen ääniä rappukäytävästä

CHORUS
          C#m9                        Badd4/E
Kiiruhda, kiiruhda ovelleni, tuo mulle viesti tytöltäni
        C#7omit3       D#m#5 Badd4/E  Badd4
Tuo mulle jotain, mistä pitää kii

CHORUS
          C#m9                        Badd4/E
Kiiruhda, kiiruhda ovelleni, tuo mulle viesti tytöltäni
        C#7omit3       D#m#5 Badd4/E
Tuo mulle jotain, mistä pitää kii.

OUTRO
Badd4

=========================================================================
Добавлено: 14.04.2012
Другие материалы по этой песне:
  • Аккорды и текст

Страница создана 14.04.2012
http://primanota.ru/egotrippi/posteljooni-chords.htm
Привет, Гость.
Предлагаем пройти революционный курс по гитаре.
Подарок от PrimaNota.Ru, забирай!