PrimaNota.ru - самый крупный в мире бесплатный архив песенных текстов, аккордов, табулатур и нот


Egil Olsen - I Am A Singer Songwriter - таба, видео

Регистрация Запомнить меня
Войти через:  Facebook Google Twitter Vk Yandex Mail.ru

Egil Olsen - I Am A Singer Songwriter - таба, видео

Печатать
Просмотров: 191
Guitar (Capo 2)

Song structure:
Verse 2x
Bridge
Chorus
Verse 2x
Bridge
Chorus repeat and fade

Verse
     E  E  E  E  E  E     E  E  E  E  E  E     E  E  E  E  E  E   
E||-----------3--------|-----------3--------|-----------3--------|
B||--------1-----1-----|--------1-----1-----|--------1-----1-----|
G||-----0-----------0--|-----0-----------0--|-----0-----------0--|
D||--------------------|--------------------|--------------------|
A||--3-----------------|--2-----------------|--0-----------------|
E||--------------------|--------------------|--------------------|


  E  E  E  E  E  E     E  E  E  E  E  E     E  E  E  E  E  E   
-----------3--------|-----------1--------|-----------3--------|
--------1-----1-----|--------1-----1-----|--------1-----1-----|
-----0-----------0--|-----2-----------0--|-----0-----------0--|
--------------------|--3-----------------|--2-----------------|
--------------------|--------------------|--------------------|
--3-----------------|--------------------|--------------------|


  E  E  E  E  E  E     E  E  E  E  E  E     E  E  E  E  E  E   
-----------3--------|-----------3--------|-----------3--------|
--------1-----1-----|--------1-----1-----|--------1-----1-----|
-----2-----------0--|-----0-----------0--|-----0-----------0--|
--0-----------------|--------------------|--------------------|
--------------------|--------------------|--3-----------------|
--------------------|--3-----------------|--------------------|

Play twice, then the bridge
   E  E  E  E  E  E      
|-----------3--------|
|--------1-----1-----|
|-----0-----------0--|
|--------------------|
|--0--------2--------|
|--------------------|

And then the chorus:
   E  E  E  E  E  E   
|-----------3--------|
|--------1-----1-----|
|-----0-----------0--|
|--------------------|
|--3-----------------|
|--------------------|


  E  E  E  E  E  E     E  E  E  E  E  E     E  E  E  E  E  E   
-----------3--------|-----------3--------|-----------0--------|
--------1-----1-----|--------1-----1-----|--------1-----1-----|
-----0-----------0--|-----2-----------0--|-----0-----------0--|
--------------------|--------------------|--------------------|
--2-----------------|--0-----------------|--2--------3--------|
--------------------|--------------------|--------------------|


  E  E  E  E  E  E     E  E  E  E  E  E     E  E  E  E  E  E   
-----------1--------|-----------1--------|-----------1--------|
--------1-----1-----|--------1-----1-----|--------1-----1-----|
-----2-----------2--|-----2-----------2--|-----2-----------2--|
--0-----------------|--0-----------------|--------------------|
--------------------|--------------------|--------------------|
--------------------|--------------------|--3-----------------|


   E  E  E  E  E  E     E  E  E  E  E  E     E  E  E  E  E  E   
------------3--------|-----------3--------|-----------3--------|
---------3-----3-----|--------1-----1-----|--------1-----1-----|
------4--------------|-----0-----------0--|-----0-----------0--|
--/5--------------5--|--------------------|--------------------|
---------------------|--3-----------------|--2-----------------|
---------------------|--------------------|--------------------|


  E  E  E  E  E  E     E  E  E  E  E  E     E  E  E  E  E  E   
-----------3--------|-----------0--------|-----------1--------|
--------1-----1-----|--------1-----1-----|--------1-----1-----|
-----2-----------0--|-----0-----------0--|-----2-----------2--|
--------------------|--------------------|--0-----------------|
--0-----------------|--2--------3--------|--------------------|
--------------------|--------------------|--------------------|


  E  E  E  E  E  E     E  E  E  E  E  E     H.            E   
-----------1--------|-----------1--------|---------------|
--------1-----1-----|--------1-----1-----|---------------|
-----2-----------2--|-----2-----------2--|---------------|
--0-----------------|--------------------|--5------------|
--------------------|--------------------|---------------|
--------------------|--3-----------------|---------------|



Duration Legend
---------------
W - whole
H - half
Q - quarter
E - 8th
S - 16th
T - 32nd
X - 64th
. - note dotted
Добавлено: 12.03.2012
Вам также может быть интересно:
Другие материалы по этой песне:

Страница создана 12.03.2012
http://primanota.ru/egil-olsen/i-am-a-singer-songwriter-chords.htm
Привет, Гость.
Предлагаем пройти революционный курс по гитаре.
Подарок от PrimaNota.Ru, забирай!