PrimaNota.ru - самый крупный в мире бесплатный архив песенных текстов, аккордов, табулатур и нот


Efteling - Fata Morgana - таба, видео

Регистрация Запомнить меня
Войти через:  Facebook Google Twitter Vk Yandex Mail.ru

Efteling - Fata Morgana - таба, видео

Печатать
Просмотров: 86
Уроки эстрадного вокала в Санкт-Петербурге
FATA MORGANA

Tab by: Tijneliaa

(Tuning: Standard)

e|-------------------------------------------------------------------------------------------
B|-------------------------------------------------------------------------------------------
G|-------------------------------------------------------------------------------------------
D|-------------------------------------------------------------------------------------------
A|--12---12-12-12---12-12-12---12-12-12---15------10---10-10-10---10-10-10---10-10-10--------
E|--------------------------------------------------------------------------------------8----

e|--------------------------------------------------------------------------------------9------
B|--10------9------------------------------------------9--10----10--11--10--11-----10----------
G|--------------10--9------9------9--10------9--10---------------------------------------------
D|----------------------12-----12---------12---------------------------------------------------
A|---------------------------------------------------------------------------------------------
E|---------------------------------------------------------------------------------------------

e|--8-----10--8------------------------8--------------------------------------------------
B|----------------11--10--11--10--11------10--9-------9----10---10-------9-------9--10----
G|-----------------------------------------------10--------------------------10-----------
D|----------------------------------------------------------------------------------------
A|----------------------------------------------------------------------------------------
E|----------------------------------------------------------------------------------------

e|--10------8-----------------------------------------------8--10--10----11--10--11--13--10---
B|--------------11--10------10------10--11------10--11----------------------------------------
G|-----------------------12------12-----------12----------------------------------------------
D|--------------------------------------------------------------------------------------------
A|--------------------------------------------------------------------------------------------
E|-------------------------------------------------------------------------------------------- 

                                                                        first time          last time
e|--13--15--13-------------------------13--------------------------|-------------------|---------------------
B|----------------16--15--16--15--16-------15--14------14--15--15--|-14------14--15~---|-14------------------
G|-------------------------------------------------15--------------|-----15------------|-----15--14--12~-----
D|-----------------------------------------------------------------|-------------------|---------------------
A|-----------------------------------------------------------------|-------------------|---------------------
E|-----------------------------------------------------------------|-------------------|---------------------


e|-------------------------------------------------------------------------------------------------------
B|----------6-------10----------------------------------------6-------------------------------------10~--
G|---7--9------5---------12--10------------------------7--9------5-----------------------9--10--12-------
D|-----------------------------------12--10--------------------------------------10--12------------------
A|---------------------------------------------13--12----------------10--12--13--------------------------
E|-------------------------------------------------------------------------------------------------------
Добавлено: 26.06.2016
Другие материалы по этой песне:
  • Аккорды и текст

Страница создана 26.06.2016
http://primanota.ru/efteling/fata-morgana-chords.htm
Привет, Гость.
Предлагаем пройти революционный курс по гитаре.
Подарок от PrimaNota.Ru, забирай!