PrimaNota.ru - самый крупный в мире бесплатный архив песенных текстов, аккордов, табулатур и нот


Efek Rumah Kaca - Di Udara - аккорды и текст, таба, видео

Регистрация Запомнить меня
Войти через:  Facebook Google Twitter Vk Yandex Mail.ru

Efek Rumah Kaca - Di Udara - аккорды и текст, таба, видео

Печатать
Просмотров: 164
Di Udara
Efek Rumah Kaca
Intro: 
 Am                              F  
---------0----|---------0----|--------3--0-|--------3--0-| 
----0h1-----0-|----0h1-----0-|----3--------|----3--------| 
--2-----2--2--|--2-----2--2--|--2--2----2--|--2--2----2--| 
--------------|--------------|-3-----3-----|-3-----3-----| 
-0------------|-0------------|-------------|-------------| 
--------------|--------------|-------------|-------------| 

Play the verse and # part exactly the same as the intro 
 
Chorus: 
 F                  C                  G                  Am  
-------0--------|----------------|----------------|----------------| 
----------1-----|-------1--------|-------0--------|-------1--------| 
-----2------2---|-----0----0---0-|-----0----0---0-|-----2----2-----| 
---3----------3-|---2--------2---|---0--------0---|---2--------2---| 
-3--------------|-3--------------|----------------|-0--------------| 
----------------|----------------|-3--------------|----------------| 
 
 F                  Em  
-------0--------|----------------| 
----------1-----|----------0-----| 
-----2------2---|-------0----0---| 
---3----------3-|-----2--------2-| 
-3--------------|---2------------| 
----------------|-0--------------| 
 
Intro 2x
 
Verse 1: 
Aku sering diancam 
Juga teror mencekam 
Kerap kudisingkirkan 
Sampai di mana kapan 
 
Ku bisa tenggelam di lautan 
Aku bisa diracuni udara 
Aku bisa terpuruk di trotoar jalan 
 
Chorus: 
Tapi aku tak pernah mati 
Tak akan berhenti 
 
Intro
 
Verse 2: 
Aku sering diancam 
Juga terror mencekam 
 
Ku bisa dibuat menderita 
Aku bisa dibuat tak bernyawa 
Dikursi-listrikkan ataupun ditikam 
 
Chorus 2x: 
 
Intro
 
Chorus 4x 
 
Intro 2x ~ to end
Добавлено: 09.05.2016
Другие материалы по этой песне:
  • Аккорды и текст

Страница создана 24.07.2012
http://primanota.ru/efek-rumah-kaca/di-udara-chords.htm
Привет, Гость.
Предлагаем пройти революционный курс по гитаре.
Подарок от PrimaNota.Ru, забирай!