PrimaNota.ru - самый крупный в мире бесплатный архив песенных текстов, аккордов, табулатур и нот


Ef-el - Sing My Net Aan Die Slaap - таба, видео

Регистрация Запомнить меня
Войти через:  Facebook Google Twitter Vk Yandex Mail.ru

Ef-el - Sing My Net Aan Die Slaap - таба, видео

Печатать
Просмотров: 122
Ef-El – Sing my net aan die slaap:

Intro:   strum soos op song
E|---------------------|
B|---------------------|
G|---------------------|
D|-4-4-3-3-3-4-4-4-1-1-|   x4
A|-2-2-1-1-1-4-4-4-1-1-|
E|---------------------|

Riff:
E|------------------------------------------------------------|
B|------------------------------------------------------------|
G|-4-4-3-3-3-11-11-11-8-8-4-4-3-3-3-11-11-11-8-8--4p3---6\4---|
D|-x x x x x x x x x x x x x x x x x x x x x x x------4-----4-|
A|-2-2-1-1-1--9--9--9-6-6-2-2-1-1-1--9--9--9-6-6--------------|
E|------------------------------------------------------------|

Verse:
E|--------------------------------------|
B|--------------------------------------|
G|--------------------------------------|
D|-6~-----6--4~-----4--2~-----2--4~-----|
A|-6~-----6--4~-----4--2~-----2--4~-----|
E|-4~-----4--2~-----2--0~-----0--2~-----|

E|-----------------------------------------------------------------|
B|-----------------------------------------------------------------|
G|-----------------------------------------------------------------|
D|-6-------6-----6---------6---6---4-------4-----4---------4---4---|
A|-6-6-6-6-6-6-6-6-6-6-6-6-6-6-6-6-4-4-4-4-4-4-4-4-4-4-4-4-4-4-4-4-|
E|-4-4-4-4-4-4-4-4-4-4-4-4-4-4-4-4-2-2-2-2-2-2-2-2-2-2-2-2-2-2-2-2-|
     * * *   * *   * * * *   *   *   * * *   * *   * * * *   *   *
E|--------------------------------------------------------------|
B|--------------------------------------------------------------|
G|--------------------------------------------------4p3---6\4---|
D|-2-------2-----2---------2---2---4-------4-----4------4-----4-|
A|-2-2-2-2-2-2-2-2-2-2-2-2-2-2-2-2-4-4-4-4-4-4-4-4--------------|
E|-0-0-0-0-0-0-0-0-0-0-0-0-0-0-0-0-2-2-2-2-2-2-2-2--------------|
     * * *   * *   * * * *   *   *   * * *   * *

Chorus:
E|-------------------------------------------------|
B|-------------------------------------------------|
G|-4-4-4-4-4-4-4-4-4-4-4-4-------------------------|
D|-4-4-4-4-4-4-4-4-4-4-4-4-2-2-2-2-2-2-2-2-2-2-2-2-|
A|-2-2-2-2-2-2-2-2-2-2-2-2-2-2-2-2-2-2-2-2-2-2-2-2-|
E|-------------------------0-0-0-0-0-0-0-0-0-0-0-0-|

E|-------------------------------------------------|
B|-------------------------------------------------|
G|-------------------------------------------------|
D|-6-6-6-6-6-6-6-6-6-6-6-6-2-2-2-2-2-2-2-2-2-x x x-|
A|-6-6-6-6-6-6-6-6-6-6-6-6-2-2-2-2-2-2-2-2-2-x x x-|
E|-4-4-4-4-4-4-4-4-4-4-4-4-0-0-0-0-0-0-0-0-0-x x x-|

E|-------------------------------------------------|
B|-------------------------------------------------|
G|-4-4-4-4-4-4-4-4-4-4-4-4-------------------------|
D|-4-4-4-4-4-4-4-4-4-4-4-4-2-2-2-2-2-2-2-2-2-2-2-2-|
A|-2-2-2-2-2-2-2-2-2-2-2-2-2-2-2-2-2-2-2-2-2-2-2-2-|
E|-------------------------0-0-0-0-0-0-0-0-0-0-0-0-|

E|-------------------------------------------------|
B|-------------------------------------------------|
G|-------------------------------------------------|
D|-6-6-6-6-6-6-6-6-6-6-6-6-2-2-2-2-2-2-2-2-2-2-2-2-|
A|-6-6-6-6-6-6-6-6-6-6-6-6-2-2-2-2-2-2-2-2-2-2-2-2-|
E|-4-4-4-4-4-4-4-4-4-4-4-4-0-0-0-0-0-0-0-0-0-0-0-0-|

Riff:
E|-----------------------------------------------|
B|-----------------------------------------------|
G|-4-4-3-3-3-11-11-11-8-8-4-4-3-3-3-11-11-11-8-8-|
D|-x x x x x x x x x x x x x x x x x x x x x x x-
A|-2-2-1-1-1--9--9--9-6-6-2-2-1-1-1--9--9--9-6-6-|
E|-----------------------------------------------|

E|------------------------------------------------------------|
B|------------------------------------------------------------|
G|-4-4-3-3-3-11-11-11-8-8-4-4-3-3-3-11-11-11-8-8--4p3---6\4---|
D|-x x x x x x x x x x x x x x x x x x x x x x x------4-----4-|
A|-2-2-1-1-1--9--9--9-6-6-2-2-1-1-1--9--9--9-6-6--------------|
E|------------------------------------------------------------|

Repeat verse

Repeat chorus

Bridge:
E|-----------------------------------------------------------------|
B|-----------------------------------------------------------------|
G|-----------------------------------------------------------------|
D|-8-6-8-6-8-6-8-6-8-6-8-6-9-6-8-6-6-4-6-4-6-4-6-4-6-4-6-4-8-4-6-4-|
A|-----------------------------------------------------------------|
E|-----------------------------------------------------------------|
   * * * * * * * * * * * * * * * * * * * * * * * * * * * * * * * *
E|----------------------------------------------------------------|
B|----------------------------------------------------------------|
G|----------------------------------------------------------------|
D|-4-2-4-2-4-2-4-2-4-2-4-2-6-2-4-2-9---9---9---9---9---9---9---9v-|
A|-----------------------------------7---7---7---7---7---7---7----|
E|----------------------------------------------------------------|
   * * * * * * * * * * * * * * * *
E|----------------------------------------------|
B|----------------------------------------------|
G|----------------------------------------------|
D|-9--8-8/9--9-8--6-6/8--8-6--4-4/6--4-4/6-6/8--|   x2
A|----------------------------------------------|
E|----------------------------------------------|

Solo:
Rhythm:
E|------------------------------------------------------------------|
B|------------------------------------------------------------------|
G|------------------------------------------------------------------|
D|-6-     -4-     -2-     -4-     -6-     -4-     -2-     -4-    ---
A|-6- x16 -4- x16 -2- x16 -4- x16 -6- x16 -4- x16 -2- x16 -4- x8 ---
E|-4-     -2-     -0-     -2-     -4-     -2-     -0-     -2-    ---

E|-------------|
B|-------------|
G|-4p3---6\4---|
D|-----4-----4-|
A|-------------|
E|-------------|

Chorus:
W/Distortion:
E|-------------------------------------------------|
B|-------------------------------------------------|
G|-4~~~--------------------------------------------|
D|-4~~~--------------------2~~~--------------------|
A|-2~~~--------------------2~~~--------------------|
E|-------------------------0~~~--------------------|
Clean:
E|-------------------------------------------------|
B|-------------------------------------------------|
G|-------------------------------------------------|
D|-6-6-6-6-6-6-6-6-6-6-6-6-2-2-2-2-2-2-2-2-2-x x x-|
A|-6-6-6-6-6-6-6-6-6-6-6-6-2-2-2-2-2-2-2-2-2-x x x-|
E|-4-4-4-4-4-4-4-4-4-4-4-4-0-0-0-0-0-0-0-0-0-x x x-|

E|-------------------------------------------------|
B|-------------------------------------------------|
G|-4-4-4-4-4-4-4-4-4-4-4-4-------------------------|
D|-4-4-4-4-4-4-4-4-4-4-4-4-2-2-2-2-2-2-2-2-2-2-2-2-|
A|-2-2-2-2-2-2-2-2-2-2-2-2-2-2-2-2-2-2-2-2-2-2-2-2-|
E|-------------------------0-0-0-0-0-0-0-0-0-0-0-0-|
                           |W/Distort
E|-------------------------|------|
B|-------------------------|------|
G|-------------------------|------|
D|-6-6-6-6-6-6-6-6-6-6-6-6-|-2~~~-|
A|-6-6-6-6-6-6-6-6-6-6-6-6-|-2~~~-|
E|-4-4-4-4-4-4-4-4-4-4-4-4-|-0~~~-|

E|-------------------------------------------------|
B|-------------------------------------------------|
G|-4-4-4-4-4-4-4-4-4-4-4-4-------------------------|
D|-4-4-4-4-4-4-4-4-4-4-4-4-2-2-2-2-2-2-2-2-2-2-2-2-|
A|-2-2-2-2-2-2-2-2-2-2-2-2-2-2-2-2-2-2-2-2-2-2-2-2-|
E|-------------------------0-0-0-0-0-0-0-0-0-0-0-0-|

E|-------------------------------------------------|
B|-------------------------------------------------|
G|-------------------------------------------------|
D|-6-6-6-6-6-6-6-6-6-6-6-6-2-2-2-2-2-2-2-2-2-x x x-|
A|-6-6-6-6-6-6-6-6-6-6-6-6-2-2-2-2-2-2-2-2-2-x x x-|
E|-4-4-4-4-4-4-4-4-4-4-4-4-0-0-0-0-0-0-0-0-0-x x x-|

E|-------------------------------------------------|
B|-------------------------------------------------|
G|-4-4-4-4-4-4-4-4-4-4-4-4-------------------------|
D|-4-4-4-4-4-4-4-4-4-4-4-4-2-2-2-2-2-2-2-2-2-2-2-2-|
A|-2-2-2-2-2-2-2-2-2-2-2-2-2-2-2-2-2-2-2-2-2-2-2-2-|
E|-------------------------0-0-0-0-0-0-0-0-0-0-0-0-|

E|-------------------------------------------------|
B|-------------------------------------------------|
G|-------------------------------------------------|
D|-6-6-6-6-6-6-6-6-6-6-6-6-2-2-2-2-2-2-2-2-2-----4-|
A|-6-6-6-6-6-6-6-6-6-6-6-6-2-2-2-2-2-2-2-2-2-2-2-2-|
E|-4-4-4-4-4-4-4-4-4-4-4-4-0-0-0-0-0-0-0-0-0-0-0---|
                                             * * *
Добавлено: 27.07.2012
Другие материалы по этой песне:
  • Аккорды и текст

Страница создана 27.07.2012
http://primanota.ru/ef-el/sing-my-net-aan-die-slaap-chords.htm
Привет, Гость.
Предлагаем пройти революционный курс по гитаре.
Подарок от PrimaNota.Ru, забирай!