PrimaNota.ru - самый крупный в мире бесплатный архив песенных текстов, аккордов, табулатур и нот


Ef-el - My Gedig - таба, видео

Регистрация Запомнить меня
Войти через:  Facebook Google Twitter Vk Yandex Mail.ru

Ef-el - My Gedig - таба, видео

Печатать
Просмотров: 145
Уроки эстрадного вокала в Санкт-Петербурге
Ef-El – My gedig:

Intro:
E|---------------------------------------------------------------------|
B|---------------------------------------------------------------------|
G|-6-6-6-6-5-6-6---6-6-6-6-5-6-6---8-8-8-8-6-8-8---10-10-10-10-8-8-8-8-|
D|---------------------------------------------------------------------|
A|---------------------------------------------------------------------|
E|---------------------------------------------------------------------|

E|---------------------------------------------------------------------|
B|---------------------------------------------------------------------|
G|-6-6-6-6-5-6-6---6-6-6-6-5-6-6---8-8-8-8-6-8-8---10-10-10-10-8-8-8-8-|
D|---------------------------------------------------------------------|
A|---------------------------------------------------------------------|
E|---------------------------------------------------------------------|

E|---------------------------------------------------------------------|
B|---------------------------------------------------------------------|
G|-6-6-6-6-5-6-6---6-6-6-6-5-6-6---8-8-8-8-6-8-8---10-10-10-10-8-8-8-8-|
D|---------------------------------------------------------------------|
A|---------------------------------------------------------------------|
E|---------------------------------------------------------------------|

Verse 1:
E|----------------------------------------------------------------|
B|----------------------------------------------------------------|
G|-x-6-x-6-6-6----x-6-x-6-6-6-------------------------------------|
D|-x-6-x-6-6-6----x-6-x-6-6-6----x-4-x-4-4-4----x-8-x-8-8-8-8-8-8-|
A|-x-4-x-4-4-4----x-4-x-4-4-4----x-4-x-4-4-4----x-8-x-8-8-8-8-8-8-|
E|-------------------------------x-2-x-2-2-2----x-6-x-6-6-6-6-6-6-|

E|---------------------------------------------------------------|
B|---------------------------------------------------------------|
G|-------------6-6-6-----------------x-6-x-6-6-6-----------------|
D|-6-6-6-x-6-x-6-6-6-6-6-6-6-6-6-6-6-x-6-x-6-6-6-6-6-6-6-6-6-6-6-|
A|-6-6-6-x-6-x-4-4-4-4-4-4-4-4-4-4-4-x-4-x-4-4-4-4-4-4-4-4-4-4-4-|
E|-4-4-4-x-4-x---------------------------------------------------|
                     * * * * * * * *             * * * * * * * *
E|-----------------------------------------------------------|
B|-----------------------------------------------------------|
G|-x-6-x-----------------------------------------------------|
D|-x-6-x-4-4-4-----------------x-4-x-8-8-8-8-8-8-6-6-6-x-6-x-|
A|-x-4-x-4-4-4-4-4-4-4-4-4-4-4-x-4-x-8-8-8-8-8-8-6-6-6-x-6-x-|
E|-------2-2-2-2-2-2-2-2-2-2-2-x-2-x-6-6-6-6-6-6-4-4-4-x-4-x-|
               * * * * * * * *

Pre-chorus:
E|-------------------------------------------------------------------|
B|------2---2-------------------------2---2--------------------------|
G|---------------6~---6---6--6-6---------------6~---6---6--6-6-------|
D|-4~-4---4--4-4-6~-6---6----6-6-4~-4---4--4-4-6~-6---6----6-6-------|
A|-4~--------4-4-4~----------4-4-4~--------4-4-4~----------4-4-4-4-4-|
E|-2~--------2-2-----------------2~--------2-2-----------------2-2-2-|
                                                               * * *

Chorus:
E|-------------------------------------------------|
B|-------------------------------------------------|
G|-6-6-6-6-6-6-6-6-6-6-6-6-------------------------|
D|-6-6-6-6-6-6-6-6-6-6-6-6-6-6-6-6-6-6-6-6-6-6-6-6-|
A|-4-4-4-4-4-4-4-4-4-4-4-4-6-6-6-6-6-6-6-6-6-6-6-6-|
E|-------------------------4-4-4-4-4-4-4-4-4-4-4-4-|

E|-------------------------------------------------|
B|-------------------------------------------------|
G|-------------------------------------------------|
D|-4-4-4-4-4-4-4-4-4-4-4-4-6-6-6-6-6-6-6-6-6-6-6-6-|
A|-4-4-4-4-4-4-4-4-4-4-4-4-6-6-6-6-6-6-6-6-6-6-6-6-|
E|-2-2-2-2-2-2-2-2-2-2-2-2-4-4-4-4-4-4-4-4-4-4-4-4-|

E|-------------------------------------------------|
B|-------------------------------------------------|
G|-6-6-6-6-6-6-6-6-6-6-6-6-------------------------|
D|-6-6-6-6-6-6-6-6-6-6-6-6-6-6-6-6-6-6-6-6-6-6-6-6-|
A|-4-4-4-4-4-4-4-4-4-4-4-4-6-6-6-6-6-6-6-6-6-6-6-6-|
E|-------------------------4-4-4-4-4-4-4-4-4-4-4-4-|

E|-------------------------------------------------|
B|-------------------------------------------------|
G|-------------------------------------------------|
D|-4-4-4-4-4-4-4-4-4-4-4-4-6-6-6-6-6-6-6-6-6-6-6-6-|
A|-4-4-4-4-4-4-4-4-4-4-4-4-6-6-6-6-6-6-6-6-6-6-6-6-|
E|-2-2-2-2-2-2-2-2-2-2-2-2-4-4-4-4-4-4-4-4-4-4-4-4-|

Riff:
E|-------------------------------------------------------------------|
B|-------------------------------------------------------------------|
G|-6-6-6---x-6-x-6-6-6-----------------------------------------------|
D|-6-6-6---x-6-x-6-6-6---x-4-x-4-4-4---x-8-x-8-8-8-8-8-8-6-6-6-x-6-x-|
A|-4-4-4---x-4-x-4-4-4---x-4-x-4-4-4---x-8-x-8-8-8-8-8-8-6-6-6-x-6-x-|
E|-----------------------x-2-x-2-2-2---x-6-x-6-6-6-6-6-6-4-4-4-x-4-x-|

Verse 2:
E|---------------------------------------------------|
B|---------------------------------------------------|
G|-6-6-6-----------------x-6-x-6-6-6-----------------|
D|-6-6-6-6-6-6-6-6-6-6-6-x-6-x-6-6-6-6-6-6-6-6-6-6-6-|
A|-4-4-4-4-4-4-4-4-4-4-4-x-4-x-4-4-4-4-4-4-4-4-4-4-4-|
E|---------------------------------------------------|
         * * * * * * * *             * * * * * * * *
E|-----------------------------------------------------------|
B|-----------------------------------------------------------|
G|-x-6-x-----------------------------------------------------|
D|-x-6-x-4-4-4-----------------x-4-x-8-8-8-8-8-8-6-6-6-x-6-x-|
A|-x-4-x-4-4-4-4-4-4-4-4-4-4-4-x-4-x-8-8-8-8-8-8-6-6-6-x-6-x-|
E|-------2-2-2-2-2-2-2-2-2-2-2-x-2-x-6-6-6-6-6-6-4-4-4-x-4-x-|
               * * * * * * * *

Repeat pre-chorus

Repeat chorus

Interlude:
E|----------------------------------------------------------|
B|----------------------------------------------------------|
G|-6-6-6-6-6-6-6-6-6-6-6-6-11-11-11-11-11-11-11-11-11-11-10-|
D|-x x x x x x x x x x x x x x x x x x x x x x x x x x x x -   x2
A|-4-4-4-4-4-4-4-4-4-4-4-4--9--9--9--9--9--9--9--9--9--9--8-|
E|----------------------------------------------------------|

Bridge:
E|----------------------------|
B|----------------------------|
G|-----6--5h6-6-6-6-6-6-5-5-5-|
D|-6-6-6--6---6-6-6-6-6-6-6-6-|   x4
A|-4-4------------------------|
E|----------------------------|
   * *
E|----------------------------|
B|----------------------------|
G|-6---6--5h6-6-6-6-6-6-5-5-5-|
D|-6-6-6--6---6-6-6-6-6-6-6-6-|   x4
A|-4-4-4----------------------|
E|----------------------------|
     *

Repeat pre-chorus

Repeat chorus

Interlude:
E|----------------------------------------------------------|
B|----------------------------------------------------------|
G|-6-6-6-6-6-6-6-6-6-6-6-6-11-11-11-11-11-11-11-11-11-11-10-|
D|-x x x x x x x x x x x x x x x x x x x x x x x x x x x x -
A|-4-4-4-4-4-4-4-4-4-4-4-4--9--9--9--9--9--9--9--9--9--9--8-|
E|----------------------------------------------------------|

E|----------------------------------------------------------|
B|----------------------------------------------------------|
G|-6-6-6-6-6-6-6-6-6-6-6-6---11--11--11~~~----/-6~------/---|
D|-x x x x x x x x x x x x x x x x x x ---------x-----------|
A|-4-4-4-4-4-4-4-4-4-4-4-4----9---9---9~~~----/-4~------/---|
E|----------------------------------------------------------|
Добавлено: 06.04.2012
Другие материалы по этой песне:
  • Аккорды и текст

Страница создана 06.04.2012
http://primanota.ru/ef-el/my-gedig-chords.htm
Привет, Гость.
Предлагаем пройти революционный курс по гитаре.
Подарок от PrimaNota.Ru, забирай!