PrimaNota.ru - самый крупный в мире бесплатный архив песенных текстов, аккордов, табулатур и нот


Ef-el - Maw - таба, видео

Регистрация Запомнить меня
Войти через:  Facebook Google Twitter Vk Yandex Mail.ru

Ef-el - Maw - таба, видео

Печатать
Просмотров: 165
Ef-El – M.A.W:

Chords : F#m   x44200
           E   x22100
           A   x02200
  High E/ hE   x79900
           B   x24400
           G   355x00

Intro:  Fm E A hE  Fm E A hE

Verse 1:
F#m                                    E
Soos wat die laaste lyn deur my brein beweeg
       A                     hE
Fok ek op   vergeet hoe ek jou breek
F#m                           E
Hoe sal ek ooit my gesig kan wys?
               A                       hE
As ek net kan praat sal jy miskien verstaan

F#m
Die gevolge is te veel om rond te dra
    E
Die pyn te seer om my te trek
     A                    hE
Ek's bang vir dit... Ek's bang vir dit...
F#m                                    E
Nou moet ek op kyk en veg vir wat myne was
                       A          hE
Ek wil net he jy moet luister

Chorus:
        F#m                                     E
Ek sal harder probeer, als doen wat ek kan vir jou
     A
Vir jou
        F#m                                     E
Ek sal harder probeer, als doen wat ek kan vir jou
     A
Vir jou

Repeat intro

Verse 2:
F#m
Gesteunigde siel wat vir my staan
          E                                      A
Proe die bitter op my wang, voel die haat in my wraak
                      hE
Ek vat jou hand en jy bewe

Jy bewe aan mekaar


F#m
Skuif nader
            E
Vergeet van naby raak
      A
‘n Besluit soos die is moeilik
               hE
Net hier om vergiffenis te vra

Chorus:    kick in with distortion – chords : F#  244xxx
                                               E  022xxx
                                               A  577xxx

        F#                                    E
Ek sal alles probeer, als doen wat ek kan vir jou
     A
Vir jou
       F#                                      E
Ek sal aanhou probeer, als doen wat ek kan vir jou
     A
Vir jou

Solo:
E|------------------------------------------------------------|
B|------------------------------------------------------------|
G|-------------------------------------------------11v---9v---|
D|-7-7-7-7-9br-9br-9br-7-9br-9-7-6-7-4-7-6-4-6-7/9------------|
A|------------------------------------------------------------|
E|------------------------------------------------------------|

E|---------------------------------------------------------------------|
B|---------------------------------------------------------------------|
G|-11v--13v--14v--/16v---14-13-11-11-11-------14-13-14-14-16-14-11-----|
D|--------------------------------------11v------------------------11v-|
A|---------------------------------------------------------------------|
E|---------------------------------------------------------------------|

E|-------------------------------------------------------|
B|---------------------11-10-10-7-7-11-11-10-10-10-7-7-7-|
G|-7h9-9/11-11v---9v-------------------------------------|
D|-------------------------------------------------------|
A|-------------------------------------------------------|
E|-------------------------------------------------------|

E|----------------------------------------------------------------|
B|-11-11-10-10-10-7-7-7-11-11-10-10-10-7-7-7-11-11-10-10-10-7-7-7-|
G|----------------------------------------------------------------|
D|----------------------------------------------------------------|
A|----------------------------------------------------------------|
E|----------------------------------------------------------------|

E|----------------------------|
B|-11-11-10-10-10-7-7---------|
G|--------------------9/11v---|
D|----------------------------|
A|----------------------------|
E|----------------------------|

Bridge:
E|-----------------------------------------------------------------|
B|-----------------------------------------------------------------|
G|-----------------------------------------------------------------|
D|-4-------4-----4-----4---4---4-4-2-------2-----2-----2---2---2-2-|
A|-4-4-4-4-4-4-4-4-4-4-4-4-4-4-4-4-2-2-2-2-2-2-2-2-2-2-2-2-2-2-2-2-|
E|-2-2-2-2-2-2-2-2-2-2-2-2-2-2-2-2-0-0-0-0-0-0-0-0-0-0-0-0-0-0-0-0-|
     * * *   * *   * *   *   *       * * *   * *   * *   *   *
E|-------------------------------------------------------------|
B|-------------------------------------------------------------|
G|-2-------2-----2-----2---2---2-2-4-------4---4---2-2-----2-2-|
D|-2-2-2-2-2-2-2-2-2-2-2-2-2-2-2-2-4-4-4-4-4-4-4-4-2-2-2-2-2-2-|
A|-0-0-0-0-0-0-0-0-0-0-0-0-0-0-0-0-2-2-2-2-2-2-2-2-0-0-0-0-0-0-|
E|-------------------------------------------------------------|
     * * *   * *   * *   *   *       * * *   *   *     * *
E|-----------------------------------------------------------------|
B|-----------------------------------------------------------------|
G|-----------------------------------------------------------------|
D|-4-------4-----4-----4---4---4-4-2-------2-----2-----2---2---2-2-|
A|-4-4-4-4-4-4-4-4-4-4-4-4-4-4-4-4-2-2-2-2-2-2-2-2-2-2-2-2-2-2-2-2-|
E|-2-2-2-2-2-2-2-2-2-2-2-2-2-2-2-2-0-0-0-0-0-0-0-0-0-0-0-0-0-0-0-0-|
     * * *   * *   * *   *   *       * * *   * *   * *   *   *
E|-------------------------------------------------------------|
B|-------------------------------------------------------------|
G|-2-------2-----2-----2---2---2-2-4-------4---4---2-2-----2-2-|
D|-2-2-2-2-2-2-2-2-2-2-2-2-2-2-2-2-4-4-4-4-4-4-4-4-2-2-2-2-2-2-|
A|-0-0-0-0-0-0-0-0-0-0-0-0-0-0-0-0-2-2-2-2-2-2-2-2-0-0-0-0-0-0-|
E|-------------------------------------------------------------|
     * * *   * *   * *   *   *       * * *   *   *     * *

Outro:  Fm  E  A  B A G
Добавлено: 28.05.2012
Другие материалы по этой песне:
  • Аккорды и текст

Страница создана 28.05.2012
http://primanota.ru/ef-el/maw-chords.htm
Привет, Гость.
Предлагаем пройти революционный курс по гитаре.
Подарок от PrimaNota.Ru, забирай!