PrimaNota.ru - самый крупный в мире бесплатный архив песенных текстов, аккордов, табулатур и нот


Ef-el - Elegie - таба, видео

Регистрация Запомнить меня
Войти через:  Facebook Google Twitter Vk Yandex Mail.ru

Ef-el - Elegie - таба, видео

Печатать
Просмотров: 156
eF-eL – Elegie:

Intro:
E|--------------------------------------------------------|
B|--------------------------------------------------------|
G|-----------------------2---2---5-5-5-7-9-5-5-5-7- x x x-|
D|-5-5-5-5-5-0-7-7-7-7-3-3-3-3-3-x x x x x x x x x- x x x-|
A|-3-2-3-2/3-0-7-7-7-7-3---3---3-3-3-5-7-3-3-3-5-5- x x x-|
E|-------------5---5---1---1---1--------------------------|

Riff:
E|-------------------------------------------------------------------|
B|-------------------------------------------------------------------|
G|-17-16-16-16-16-17-16-16-16-16-17-16/17-16-16-16-17-16/17-16-16-16-|
D|-x x x x x x x x x x x x x x x x x x x x x x x x x x x x x x x x x-
A|-15-14-14-14-14-15-14-14-14-14-15-14/15-14-14-14-15-14/15-14-14-14-|
E|-------------------------------------------------------------------|

E|-----------------------------------------------------|
B|-----------------------------------------------------|
G|-17-16-16-16-16-17-16-16-16-16-5-5-7-9-5-5-5-5-5-7-5-|
D|-x x x x x x x x x x x x x x x x x x x x x x x x x x-
A|-15-14-14-14-14-15-14-14-14-14-3-3-5-7-3-3-3-3-3-5-3-|
E|-----------------------------------------------------|

Verse 1:
E|----------------------------------------------------|
B|----------------------------------------------------|
G|-5--------------------------------------------------|
D|-5--------7--------3~~~-----5-5-5-5-5-5-5-5-5-5-5-5-|
A|-3--------7--------3~~~-----5-5-5-5-5-5-5-5-5-5-5-5-|
E|----------5--------1~~~-----3-3-3-3-3-3-3-3-3-3-3-3-|

E|-------------------------------------------------------------------|
B|-------------------------------------------------------------------|
G|-5-----5---5-------5-5---------------------------------------------|
D|-5-5-5-5-5-5-5-5-5-5-5-7-----7---7-------7-7-3-----3---3-------3-3-|
A|-3-3-3-3-3-3-3-3-3-3-3-7-7-7-7-7-7-7-7-7-7-7-3-3-3-3-3-3-3-3-3-3-3-|
E|-----------------------5-5-5-5-5-5-5-5-5-5-5-1-1-1-1-1-1-1-1-1-1-1-|
     * *   *   * * *       * *   *   * * *       * *   *   * * *

E|-------------------------|
B|-------------------------|
G|-------------------------|
D|-5-5-5-5-5-5-5-5-5-5-5-5-|
A|-5-5-5-5-5-5-5-5-5-5-5-5-|
E|-3-3-3-3-3-3-3-3-3-3-3-3-|

E|-------------------------------------------------------------------|
B|-------------------------------------------------------------------|
G|-5-----5---5-------5-5---------------------------------------------|
D|-5-5-5-5-5-5-5-5-5-5-5-7-----7---7-------7-7-3-----3---3-------3-3-|
A|-3-3-3-3-3-3-3-3-3-3-3-7-7-7-7-7-7-7-7-7-7-7-3-3-3-3-3-3-3-3-3-3-3-|
E|-----------------------5-5-5-5-5-5-5-5-5-5-5-1-1-1-1-1-1-1-1-1-1-1-|
     * *   *   * * *       * *   *   * * *       * *   *   * * *

E|----------------------------|
B|----------------------------|
G|----------------------------|
D|-5-5-5-5-5-5-5-5-5-5-5-5-5~-|
A|-5-5-5-5-5-5-5-5-5-5-5-5-5~-|
E|-3-3-3-3-3-3-3-3-3-3-3-3-3~-|

Chorus:
Clean:
E|------------------------------------------------------------------|
B|------------------------------------------------------------------|
G|-----5------------------------------5-------------------------x x-|
D|------------7-------3-------5---------------7-------3-------5-x x-|
A|-3--------7---7-----------5---5-3---------7---7-----------5---x x-|
E|--------5-------1-------3---------------5-------1-------3-----x x-|

E|-------------------------------------|
B|-------------------------------------|
G|-17-17-17-17-17-17-16-16-16/17-17-17-|
D|-x x x x x x x x x x x x x x x x x x-   x4
A|-15-15-15-15-15-15-14-14-14/15-15-15-|
E|-------------------------------------|

W/Distortion:
E|---------------------|
B|---------------------|
G|-5-------------------|
D|-5---5-7~---3-----5~-|
A|-3---3-7~---3---3-5~-|
E|-------5~---1---1-3~-|
       *          *

E|-------------------------------------------------|
B|-------------------------------------------------|
G|-5-5-5-5-5-5-------------------------------------|
D|-5-5-5-5-5-5-7-7-7-7-7-7-3-3-3-3-3-3-5-5-5-5-5-5-|   x2
A|-3-3-3-3-3-3-7-7-7-7-7-7-3-3-3-3-3-3-5-5-5-5-5-5-|
E|-------------5-5-5-5-5-5-1-1-1-1-1-1-3-3-3-3-3-3-|

Riff:
E|-------------------------------------|
B|-------------------------------------|
G|-17-17-17-17-17-17-16-16-16/17-17-17-|
D|-x x x x x x x x x x x x x x x x x x-   x4
A|-15-15-15-15-15-15-14-14-14/15-15-15-|
E|-------------------------------------|

Verse 2:
E|---------------------------------------------------------------------|
B|---------------------------------------------------------------------|
G|-5-----5---5-------5-5-----------------------------------------------|
D|-5-5-5-5-5-5-5-5-5-5-5-7-----7---7-------7-7-3-----3---3-------3-3-5-|
A|-3-3-3-3-3-3-3-3-3-3-3-7-7-7-7-7-7-7-7-7-7-7-3-3-3-3-3-3-3-3-3-3-3-5-|
E|-----------------------5-5-5-5-5-5-5-5-5-5-5-1-1-1-1-1-1-1-1-1-1-1-3-|
     * *   *   * * *       * *   *   * * *       * *   *   * * *

E|-------------------------------------------------------------------|
B|-------------------------------------------------------------------|
G|-5-----5---5-------5-5---------------------------------------------|
D|-5-5-5-5-5-5-5-5-5-5-5-7-----7---7-------7-7-3-----3---3-------3-3-|
A|-3-3-3-3-3-3-3-3-3-3-3-7-7-7-7-7-7-7-7-7-7-7-3-3-3-3-3-3-3-3-3-3-3-|
E|-----------------------5-5-5-5-5-5-5-5-5-5-5-1-1-1-1-1-1-1-1-1-1-1-|
     * *   *   * * *       * *   *   * * *       * *   *   * * *

E|----------------------------|
B|----------------------------|
G|----------------------------|
D|-5-5-5-5-5-5-5-5-5-5-5-5-5~-|
A|-5-5-5-5-5-5-5-5-5-5-5-5-5~-|
E|-3-3-3-3-3-3-3-3-3-3-3-3-3~-|

Repeat chorus

Bridge:   (op gebruik en weggesmyt....)
E|-------------------------------------------------------------------|
B|-------------------------------------------------------------------|
G|-------------------------------------------------------------------|
D|-7-7-7-7-7-5-3~---7-7-7-7-7-5-3~---7-----5-----5---3---3---------3-|
A|-7-7-7-7-7-5-3~---7-7-7-7-7-5-3~---7-7-7-5-5-5-5-5-3-3-3-3-3-3-3-3-|
E|-5-5-5-5-5-3-1~---5-5-5-5-5-3-1~---5-5-5-3-3-3-3-3-1-1-1-1-1-1-1-1-|
                                       * *   * *   *   *   * * * *

E|-------------------------------------------------|
B|-------------------------------------------------|
G|-------------------------------------------------|
D|-7-----5-----5---3-------------------------5-5-5-|
A|-7-7-7-5-5-5-5-5-3-3-3-3-3-3-3-3-5-5-5-5-5-5-5-5-|
E|-5-5-5-3-3-3-3-3-1-1-1-1-1-1-1-1-3-3-3-3-3-3-3-3-|
     * *   * *   *   * * * * * * * * * * let off palm mute

Bridge continued:  (in die einde is daar geen geheime....)
E|---------------------------------------------------------------------|
B|---------------------------------------------------------------------|
G|---------------------------------------------------------------------|
D|-7-7-7---5-5-5---3-3-3-----5-5---7-7-7-x x x-5-5-5-x x x-3-3-3-x x x-|
A|-7-7-7---5-5-5---3-3-3-----5-5---7-7-7-x x x-5-5-5-x x x-3-3-3-x x x-|
E|-5-5-5---3-3-3---1-1-1-----3-3---5-5-5-x x x-3-3-3-x x x-1-1-1-x x x-|

E|-------------------------------------------------------------|
B|-------------------------------------------------------------|
G|-------------------------------------------------------------|
D|-5-5-5-5-5-5-7-7-7-7-7-7-5-5-5-5-5-5-3-3-3-3-3-3-5-5-5-5-5-5-|
A|-5-5-5-5-5-5-7-7-7-7-7-7-5-5-5-5-5-5-3-3-3-3-3-3-5-5-5-5-5-5-|
E|-3-3-3-5-5-5-5-5-5-5-5-5-3-3-3-3-3-3-1-1-1-1-1-1-3-3-3-3-3-3-|

E|---------------------------|
B|---------------------------|
G|---------------------------|
D|-5-5-5-5-5-5-5-5-5-5-5-5-5-|
A|-5-5-5-5-5-5-5-5-5-5-5-5-5-|
E|-3-3-3-3-3-3-3-3-3-3-3-3-3-|


Chorus:
Clean:
E|------------------------------------------------------------------|
B|------------------------------------------------------------------|
G|-----5------------------------------5-------------------------x x-|
D|------------7-------3-------5---------------7-------3-------5-x x-|
A|-3--------7---7-----------5---5-3---------7---7-----------5---x x-|
E|--------5-------1-------3---------------5-------1-------3-----x x-|

E|-------------------------------------|
B|-------------------------------------|
G|-17-17-17-17-17-17-16-16-16/17-17-17-|
D|-x x x x x x x x x x x x x x x x x x-   x3
A|-15-15-15-15-15-15-14-14-14/15-15-15-|
E|-------------------------------------|

E|-------------|
B|-------------|
G|-x x-17---16-|
D|-x x--x----x-|
A|-x x-15---14-|
E|-------------|

W\Distortion:        Ek kan nie die solo uitwerk nie,hier's die rhythm:
E|-------------------------------------------------|
B|-------------------------------------------------|
G|-7-7-7-7-7-7-------------------------------------|
D|-7-7-7-7-7-7-9-9-9-9-9-9-5-5-5-5-5-5-7-7-7-7-7-7-|   x4
A|-5-5-5-5-5-5-9-9-9-9-9-9-5-5-5-5-5-5-7-7-7-7-7-7-|
E|-------------7-7-7-7-7-7-3-3-3-3-3-3-5-5-5-5-5-5-|

E|------------------------------------------------------|
B|------------------------------------------------------|
G|-7-7-7-7-7-7-------------------------------------7~---|
D|-7-7-7-7-7-7-9-9-9-9-9-9-5-5-5-5-5-5-7-7-7-7-7-7-7~---|
A|-5-5-5-5-5-5-9-9-9-9-9-9-5-5-5-5-5-5-7-7-7-7-7-7-5~---|
E|-------------7-7-7-7-7-7-3-3-3-3-3-3-5-5-5-5-5-5------|
Добавлено: 19.04.2012
Другие материалы по этой песне:
  • Аккорды и текст

Страница создана 19.04.2012
http://primanota.ru/ef-el/elegie-chords.htm
Привет, Гость.
Предлагаем пройти революционный курс по гитаре.
Подарок от PrimaNota.Ru, забирай!