PrimaNota.ru - самый крупный в мире бесплатный архив песенных текстов, аккордов, табулатур и нот


Ef-el - Die Idee Van - таба, видео

Регистрация Запомнить меня
Войти через:  Facebook Google Twitter Vk Yandex Mail.ru

Ef-el - Die Idee Van - таба, видео

Печатать
Просмотров: 139
EF-EL:DIE IDEE VAN



INTRO:

E|------------|------------|
B|------------|------------|
G|-4-4-4-4-4--|-6-6-6-6-6--|  (2)TIMES
D|-4-4-4-4-4--|-6-6-6-6-6--|
A|-2-2-2-2-2--|-4-4-4-4-4--|
E|------------|------------|

E|------------|------------|------------|------------|------------|------------|
B|------------|------------|------------|------------|------------|------------|
G|-8-8-8-8-8--|-8-8-8-8-8--|-4-4-4-4-4--|-6-6-6-6-6--|-8-8-8-8-8--|-8-8-8-8-8--|
D|-8-8-8-8-8--|-8-8-8-8-8--|-4-4-4-4-4--|-6-6-6-6-6--|-8-8-8-8-8--|-8-8-8-8-8--|
A|-6-6-6-6-6--|-6-6-6-6-6--|-2-2-2-2-2--|-4-4-4-4-4--|-6-6-6-6-6--|-6-6-6-6-6--|
E|------------|------------|------------|------------|------------|------------|


VERSE

E|------------|------------|------------|------------|------------|
B|------------|------------|--------2---|----4-(4)\--|-2------2---|
G|-4-4-4-4-4--|-6-6-6-6-6--|------------|------------|------------|
D|-4-4-4-4-4--|-6-6-6-6-6--|---1--4-----|-4---------4|----4-----4-|
A|-2-2-2-2-2--|-4-4-4-4-4--|-2----------|------------|------------|
E|------------|------------|------------|------------|------------|

                                         ek het lank trig vergeet|virgeet wat was belangrik


E|-----2------|------------|------------|------------|------------|
B|-2-----2----|---------2--|---4-(4)\---|-2------2---|-2----2-----|
G|------------|------------|------------|------------|--------2---|
D|---4-----4--|---1--4-----|-4--------4-|----4------4|--4--------4|
A|------------|-2----------|------------|------------|------------|
E|------------|------------|------------|------------|------------|
  want wie was ek om ooit te dink eks onavhanklik van....


 pm___  pm______pm__pm___pm______pm__pm___pm______pm_pm____pm____pm___
E|----------------|----------------|----------------|----------------|
B|----------------|----------------|----------------|----------------|
G|-----4-------4--|-----4-------6--|-----8-------8--|-----6-----6---6|
D|-4-4-4-4-4-4-4-4|-4-4-4-4-6-6-6-6|-8-8-8-8-8-8-8-8|-6-6-6-6-6-6-6-6|
A|-2-2-2-2-2-2-2-2|-2-2-2-2-4-4-4-4|-6-6-6-6-6-6-6-6|-4-4-4-4-4-4-4-4|
E|----------------|----------------|----------------|----------------|
  
gemidelde aktivityte....   

     
 pm___  pm______pm__pm___pm______pm__pm___pm______pm
E|----------------|----------------|----------------|----------------|
B|----------------|----------------|----------------|----------------|
G|-----4-------4--|-----4-------6--|-----8-------8--|-6-6-6-6-6-6-6-6|
D|-4-4-4-4-4-4-4-4|-4-4-4-4-6-6-6-6|-8-8-8-8-8-8-8-8|-6-6-6-6-6-6-6-6|
A|-2-2-2-2-2-2-2-2|-2-2-2-2-4-4-4-4|-6-6-6-6-6-6-6-6|-4-4-4-4-4-4-4-4|
E|----------------|----------------|----------------|----------------|
                                      ek gee alles want niks is te min....        
                   
    
CHORUS
 
E|-----9-9------|-9-9-----9----|
B|-6-7-----7-6-7|-----6-7------|
G|--------------|--------------|  (6)times
D|--------------|--------------|
A|--------------|--------------|
E|--------------|--------------|
  hou op troos jy vryf dit in.....
E|-9-9-----9--|-9-9-9---9--|
B|-----6-7----|-------7----|
G|------------|------------|
D|------------|------------|
A|------------|------------|
E|------------|------------|
 

VERSE2
p.m_________________________________________________
E|----------------|----------------|----------------|
B|----------------|----------------|----------------|
G|----------------|----------------|----------------|
D|-4-4-4-4-4-4-4-4|-4-4-4-4-6-6-6-6|-8-8-8-8-8-8-8-8|
A|-2-2-2-2-2-2-2-2|-2-2-2-2-4-4-4-4|-6-6-6-6-6-6-6-6|
E|----------------|----------------|----------------|

  ek dink ek kan ....                so maak jou punt

p.m__________________________________________________________________
E|----------------|----------------|----------------|----------------|
B|----------------|----------------|----------------|----------------|
G|----------------|----------------|----------------|----------------|
D|-6-6-6-6-6-6-6-6|-4-4-4-4-4-4-4-4|-4-4-4-4-6-6-6-6|-8-8-8-8-8-8-8-8|
A|-4-4-4-4-4-4-4-4|-2-2-2-2-2-2-2-2|-2-2-2-2-4-4-4-4|-6-6-6-6-6-6-6-6|
E|----------------|----------------|----------------|----------------|

  en ons kan       n oplsing kry.....

pm_________________________________
E|----------------|-----------------1----|-2-----2-----1--|-2-----2-----1--|
B|----------------|------------------(2)-|---(2)---(2)----|---(2)---(2)----|
G|----------------|----------------------|----------------|----------------|
D|-6-6-6-6-6-6-6-6|-4-4-4-4-4-4-4-4------|----------------|----------------|
A|-4-4-4-4-4-4-4-4|-2-2-2-2-2-2-2-2------|----------------|----------------|
E|----------------|----------------------|----------------|----------------|
                                   die gevolg trekking                               
E|-2-----2-----1--|-----2-2-----1-1|-2-4-2-1-1-2----|-----2-2----1---|
B|---(2)---(2)----|-----2-2-----2-2|-2-2-2-2-2-2----|-----2-2----2---|
G|----------------|----------------|----------------|----------------|
D|----------------|-4-4-----4-4----|----------------|-8-8------------|
A|----------------|-2-2-----4-4----|----------------|-8-8------------|
E|----------------|----------------|----------------|----------------|
                   dis n teken of n streaf           EK HOOP DIS N STRAF
CHORUS

E|-2-2-2-4-1-1-2|
B|-2-2-2-2-2-2-2|
G|--------------|
D|--------------|
A|--------------|
E|--------------|
 
  EK HOOP DIS N STRAF

E|-----9-9------|-9-9-----9----|
B|-6-7-----7-6-7|-----6-7------|
G|--------------|--------------|
D|--------------|--------------| (8)times
A|--------------|--------------|
E|--------------|--------------|

hou op troos jy vryf dit in

SOLO


E|-------------11---------|-------------12----11---|
B|----------12----12------|----------12----12----12|
G|-------13----------13---|-------13---------------|
D|----13----------------13|----13------------------|
A|/14---------------------|-14---------------------|
E|------------------------|------------------------|


E|-----------------------|-----------------------|-------------11---------|-------------12----11---|
B|------------11---------|---------11-14-11------|----------12----12------|----------12----12----12|
G|---------11----11------|------11----------11---|-------13----------13---|-------13---------------|
D|------13----------13---|---11----------------11|----13----------------13|----13------------------|
A|13-14----------------14|13---------------------|/14---------------------|-14---------------------|
E|-----------------------|-----------------------|------------------------|------------------------|


E|------------------------|------------------------|-----------|---------------|---------------|
B|-------------11---------|------------------------|----------2|-----4--(4)\---|--2------2-----|
G|----------11----11------|-11---------------------|-----------|---------------|---------------|
D|-------13----------13---|----13------------------|----1--4---|--4-----------4|-----4------4--|
A|-13-14----------------14|-------14-13-14-13------|-2---------|---------------|---------------|
E|------------------------|-------------------14-11|-----------|---------------|---------------|

E|-------2-----|-------------|--------------|-------------|------2------|
B|--2------2---|----------2--|-----4--(4)\--|-2-----2-----|-2------2----|
G|-------------|-------------|--------------|-------------|-------------|
D|-----4------4|----1--4-----|--4----------4|----4-----4--|-----4------4|
A|-------------|-2-----------|--------------|-------------|-------------|
E|-------------|-------------|--------------|-------------|-------------|

BRIGE

E|-----------|-----------|-----------|-----------|-----------|-----------|
B|-----------|-----------|-----------|-----------|-----------|-----------|
G|-8-8-8-8-8-|-8-8-8-8-8-|-4-4-4-4-4-|-6-6-6-6-6-|-8-8-8-8-8-|-8-8-8-8-8-|
D|-8-8-8-8-8-|-8-8-8-8-8-|-4-4-4-4-4-|-6-6-6-6-6-|-8-8-8-8-8-|-8-8-8-8-8-|
A|-6-6-6-6-6-|-6-6-6-6-6-|-2-2-2-2-2-|-4-4-4-4-4-|-6-6-6-6-6-|-6-6-6-6-6-|
E|-----------|-----------|-----------|-----------|-----------|-----------|


E|-------------|
B|-------------|
G|-----4~------|
D|-----4~------|
A|-----2~------|
E|-------------|
 HOU OP TROOS JY

E|-----9-9------|-9-9-----9-|
B|-6-7-----7-6-7|-----6-7---|
G|--------------|-----------| (7)TIMES
D|--------------|-----------|
A|--------------|-----------|
E|--------------|-----------|
  VRYF DIT IN....

E|------------|-----------|-----------|
B|--14----12--|------11---|--7--------|
G|------------|-----------|-----------|
D|------------|-----------|-----------|
A|------------|-----------|-----------|
E|------------|-----------|-----------|


Добавлено: 17.06.2012
Другие материалы по этой песне:

Страница создана 08.05.2012
http://primanota.ru/ef-el/die-idee-van-chords.htm
Привет, Гость.
Предлагаем пройти революционный курс по гитаре.
Подарок от PrimaNota.Ru, забирай!