PrimaNota.ru - самый крупный в мире бесплатный архив песенных текстов, аккордов, табулатур и нот


Eels - Peach Blossom - аккорды и текст, таба, видео

Регистрация Запомнить меня
Войти через:  Facebook Google Twitter Vk Yandex Mail.ru

Eels - Peach Blossom - аккорды и текст, таба, видео

Печатать
Просмотров: 283
Уроки эстрадного вокала в Санкт-Петербурге
Peach Blossom
Eels
EELS 

Peach Blossom 

Album : Wonderful Glorious
tempo : 80

Capo 10

intro  
E ||--------------|----------------------------|--------------------------|
B ||--------------|----------------------------|--------------------------|
G ||--------------|----------------------------|--------------------------|
D ||--------------|----------------------------|--------------------------|
A ||--0-----------|-------3-----3--------------|--------1-----------------|
E ||--------0-----|-----------------3----------|--------------1-----------|

---------------------------||
---------------------------||
---------------------------||
---------------------------||
---------------------0-----||
-----0----0---0------------||
Riff x2


Verse 1 :   (No lyrics in the verse, just the drums)
Oh man, feel so nice
That was a long cold night
But then the sun came out to thaw the ice

Riff x1

Chorus :
A          E                     C          G
Open the window man to smell the peach blossom,
A#        F      E        A5
The tiger lily, the merrygold

Verse 2 :
Oh look at her, she's got something to say
and I cant wait to hear it
Won't let her get away

Break :
A A# B A#

Riff  x1

Chorus 2 :
A          E                     C          G
Open the window man to smell the peach blossom,
A#        F      E        A5
The tiger lily, the merrygold

Verse 3 :
Oh yeah, oh my goodness
You gonna love what's happening in here
There ain't nothing 

Bridge : 
                 C#      G           C#         B
for me to fear

Chorus 3 :
A          E                     C          G
Open the window man to smell the peach blossom,
A#        F      E        A5
The tiger lily, the merrygold                      x2


arpeggio : A E C G A# F E A5  x2

A                E          C          G
||---------------------|----------------------|
||-------2--0----------|--1--------0----------|
||--------------1------|-----0--------0-------|
||---2-----------2-----|--------2--------0----|
||-0-------------------|----------------------|
-||--------------------|----------------------|

A#         F               E           A
----------------------|-----------------------||
----------------------|-----------------------||
--3--------2----------|--1--------2-----------||
-----3--------3-------|-----2--------2--------||
--------1--------3----|--------2--------0-----||
----------------------|-----------------------||


A          E                     C          G
Open the window man to smell the peach blossom,
A#        F      E        A5
The tiger lily, the merrygold                      x2

A E C G A# F E A5    x4
Добавлено: 02.06.2013
Другие материалы по этой песне:

Страница создана 02.06.2013
http://primanota.ru/eels/peach-blossom-chords.htm
Привет, Гость.
Предлагаем пройти революционный курс по гитаре.
Подарок от PrimaNota.Ru, забирай!