PrimaNota.ru - самый крупный в мире бесплатный архив песенных текстов, аккордов, табулатур и нот


Eels - Hospital Food - текст песни, бас-таба, видео

Регистрация Запомнить меня
Войти через:  Facebook Google Twitter Vk Yandex Mail.ru

Eels - Hospital Food - текст песни, бас-таба, видео

Печатать
Просмотров: 91
Уроки эстрадного вокала в Санкт-Петербурге
Авторы музыки: Butch, Jim Lang, E
Авторы текста: E
Song: Hospital Food
Artist: Eels
Album: Electroshock Blues (1998)

G|-------------------------|------------------------------|
D|-------8-----------------|------------------------------|
A|--/12------\\6--3--3-----|--6/8-8/10--b10-b10--3--6--3--|
E|-------------------------|------------------------------|

G|-------------------------|------------------------------|
D|-------8-----------------|--------3----------4----------|
A|---12------\\6--3--3-----|--3--6----3-----6----3--6-----|
E|-------------------------|------------------------------|

G|-------------------------|------------------------------|
D|-------8-----------------|--------3----------4----------|
A|---12------\\6--3--3-----|--3--6----3-----6----3--6-----|
E|-------------------------|------------------------------|

G|-------------------------|------------------------------|
D|-------------------------|------4--3----3---------------|
A|---12--10---6--3--6------|--6-3-------6---3-------------|
E|------8------------------|------------------------------|

G|-------------------------|------------------------------|
D|-------8-----------------|--------3----------4----------|
A|---12------\\6--3--3-----|--3--6----3-----6----3--6-----|
E|-------------------------|------------------------------|

G|-------------------------|------------------------------|
D|-------------------------|------4--3----3---------------|
A|---12--10---6--3--6------|--6-3-------6---3-------------|
E|------8------------------|------------------------------|
Добавлено: 26.05.2017
Другие материалы по этой песне:
  • Аккорды и текст

Страница создана 20.06.2012
http://primanota.ru/eels/hospital-food-chords.htm
Привет, Гость.
Предлагаем пройти революционный курс по гитаре.
Подарок от PrimaNota.Ru, забирай!