PrimaNota.ru - самый крупный в мире бесплатный архив песенных текстов, аккордов, табулатур и нот


Eefje De Visser - Trein - таба, видео

Регистрация Запомнить меня
Войти через:  Facebook Google Twitter Vk Yandex Mail.ru

Eefje De Visser - Trein - таба, видео

Печатать
Просмотров: 115
-------------------------------------------------------------------------------
                             TREIN - Eefje de Visser
-------------------------------------------------------------------------------
Tabbed by: Joost

Noten en grepen kloppen, ritme is op een aantal momenten vrij voor interpretatie. 
Succes!


Tuning: EADGBE

Couplet:

    G5      G5/7    G5/C     G5/Bb        G5      G5/7    G5/C     G5/B
e|---------------------------------------------------------------------------------|
B|-------3-------3-------3------3-----3---------3-------3-------3------3------3----|
G|----0--------0-------0------0-----0---0----0--------0-------0------0------0---0--|
D|---------------------------------------------------------------------------------|
A|------------------3-------1-----1------------------------3-------1------1--------|
E|-3--------1-----------------------------3--------1-------------------------------|

Er was een trein, waar ik in zat
Waarin ik rust vond
Rust van de mensen, rust in mezelf
en rust door het land waar we langs

Er was een trein, waar ik in zat
Waarin ik gek werd
Gek van de mensen, gek van mezelf
en gek van de steden waar we reden

   Csus2                         Csus2/Bb     Csus2
e|-3-----3------3----3----3------3-----3------3-----3-----3------------------|
B|---3-----3------3----3----3------3-----3------3-----3----------------------|
G|---------------------------------------------------------------------------|
D|---------------------------------------------------------------------------|
A|-3---3-----3------3----3----3--1---1-----1--3---3-----3--------------------|
E|---------------------------------------------------------------------------|

Als ik mijn hoofd op de ramen rustte

    G5      G5/7    G5/C     G5/Bb        G5      G5/7    G5/C     G5/B
e|---------------------------------------------------------------------------------|
B|-------3-------3-------3------3-----3---------3-------3-------3------3------3----|
G|----0--------0-------0------0-----0---0----0--------0-------0------0------0---0--|
D|---------------------------------------------------------------------------------|
A|------------------3-------1-----1------------------------3-------1------1--------|
E|-3--------1-----------------------------3--------1-------------------------------|

En omdat niemand me verliet was ik
nooit echt alleen te vinden
ik had een huis vol vreemden en
een hoofd vol vrienden

    Csus2         Cm            Bsus4
e|---------------------------------------------------------------------------|
B|------3-----3------4------4---------5--------------------------------------|
G|----0-----0------5------5-----------4--------------------------------------|
D|----------------------------------4----------------------------------------|
A|--3-----3------3------3-------2--------------------------------------------|
E|---------------------------------------------------------------------------|

een brievenbus vol brieven
op iedereen verliefd en
ik ga naar bed...

    D6           F#m          Aadd9         Bm
e|---------------------------------------------------------------------------|
B|----0-----0------2-----2------0-------------3-----3------------------------|
G|----2---2---2----2---2---2----6------6------4---4---4----------------------|
D|--0---0--------4---4----------7----7---7----4------------------------------|
A|----------------------------0----0--------2---2----------------------------|
E|---------------------------------------------------------------------------|

of doe alsof net, net alsof ik slaap
alsof net, net alsof ik wakker ben
alsof net, net alsof

    D6           F#m             Am7
e|-------------------------------------------------------------------|
B|----0-----0------2-----2--------1-------1--------1--------1--------|
G|----2---2---2----2---2---2------0-----0---0----0---0----0---0------|
D|--0---0--------4---4------------2----------------------------------|
A|------------------------------0----0---------0--------0------------|
E|-------------------------------------------------------------------|


alsof net, net alsof
Ik doe alsof net, net alsof

    G5      G5/7    G5/C     G5/Bb        G5      G5/7    G5/C     G5/B
e|---------------------------------------------------------------------------------|
B|-------3-------3-------3------3-----3---------3-------3-------3------3------3----|
G|----0--------0-------0------0-----0---0----0--------0-------0------0------0---0--|
D|---------------------------------------------------------------------------------|
A|------------------3-------1-----1------------------------3-------1------1--------|
E|-3--------1-----------------------------3--------1-------------------------------|

Er was een trein, waarin ik wegreed
waarin ik wegreed
En toen ie halt hield, werden we wakker in ons eentje
Verwilderd en vervreemd, maar alleen
maar alleen maar alleen


   Csus2                         Csus2/Bb     Csus2
e|-3-----3------3----3----3------3-----3------3-----3-----3------------------|
B|---3-----3------3----3----3------3-----3------3-----3----------------------|
G|---------------------------------------------------------------------------|
D|---------------------------------------------------------------------------|
A|-3---3-----3------3----3----3--1---1-----1--3---3-----3--------------------|
E|---------------------------------------------------------------------------|

    G5      G5/7    G5/C     G5/Bb        G5      G5/7    G5/C     G5/B
e|---------------------------------------------------------------------------------|
B|-------3-------3-------3------3-----3---------3-------3-------3------3------3----|
G|----0--------0-------0------0-----0---0----0--------0-------0------0------0---0--|
D|---------------------------------------------------------------------------------|
A|------------------3-------1-----1------------------------3-------1------1--------|
E|-3--------1-----------------------------3--------1-------------------------------|

en omdat niemand me verliet
was ik nooit echt alleen te vinden
ik had een huis vol vreemden en
een hoofd vol vrienden

    Csus2         Cm            Bsus4
e|---------------------------------------------------------------------------|
B|------3-----3------4------4---------5--------------------------------------|
G|----0-----0------5------5-----------4--------------------------------------|
D|----------------------------------4----------------------------------------|
A|--3-----3------3------3-------2--------------------------------------------|
E|---------------------------------------------------------------------------|

een brievenbus vol brieven
op iedereen verliefd en ik ga naar bed...

    D6           F#m          Aadd9         Bm
e|---------------------------------------------------------------------------|
B|----0-----0------2-----2------0-------------3-----3------------------------|
G|----2---2---2----2---2---2----6------6------4---4---4----------------------|
D|--0---0--------4---4----------7----7---7----4------------------------------|
A|----------------------------0----0--------2---2----------------------------|
E|---------------------------------------------------------------------------|

of doe alsof net, net alsof ik slaap
alsof net, net alsof ik wakker ben

    D6           F#m          Am7            Bm
e|---------------------------------------------------------------------------|
B|----0-----0------2-----2------1------1------3-----3------------------------|
G|----2---2---2----2---2---2----0----0---0----4---4---4----------------------|
D|--0---0--------4---4----------2-------------4------------------------------|
A|----------------------------0----0--------2---2----------------------------|
E|---------------------------------------------------------------------------|

alsof net, net alsof
Ik doe alsof net, net alsof ik wakker ben

    D6           F#m          Aadd9         Bm
e|---------------------------------------------------------------------------|
B|----0-----0------2-----2------0-------------3-----3------------------------|
G|----2---2---2----2---2---2----6------6------4---4---4----------------------|
D|--0---0--------4---4----------7----7---7----4------------------------------|
A|----------------------------0----0--------2---2----------------------------|
E|---------------------------------------------------------------------------|

alsof net, net alsof ik slaap
alsof net, net alsof ik wakker ben

    D6           F#m             Am7
e|-------------------------------------------------------------------|
B|----0-----0------2-----2--------1-------1--------1--------1--------|
G|----2---2---2----2---2---2------0-----0---0----0---0----0---0------|
D|--0---0--------4---4------------2----------------------------------|
A|------------------------------0----0---------0--------0------------|
E|-------------------------------------------------------------------|

alsof net, net alsof
ik doe, ik doe alsof net, net, net, net, net, net alsof

    G5      G5/7    G5/C     G5/Bb        G5      G5/7    G5/C     G5/B
e|---------------------------------------------------------------------------------|
B|-------3-------3-------3------3-----3---------3-------3-------3------3------3----|
G|----0--------0-------0------0-----0---0----0--------0-------0------0------0---0--|
D|---------------------------------------------------------------------------------|
A|------------------3-------1-----1------------------------3-------1------1--------|
E|-3--------1-----------------------------3--------1-------------------------------|

Hmmm

Omdat niemand me verlaat
Omdat niemand me begrijpt
niemand laat me gaan
maar ik ben continue op reis

   Csus2                         Csus2/Bb     Csus2
e|-3-----3------3----3----3------3-----3------3-----3-----3------------------|
B|---3-----3------3----3----3------3-----3------3-----3----------------------|
G|---------------------------------------------------------------------------|
D|---------------------------------------------------------------------------|
A|-3---3-----3------3----3----3--1---1-----1--3---3-----3--------------------|
E|---------------------------------------------------------------------------|

omdat je me niet wakker heb geschud
omdat ik iedereen de schuld geef
omdat ik iedereen gelijk geef
omdat ik praat en praat en praat en praat

    G5      G5/7    G5/C     G5/Bb        G5      G5/7    G5/C     G5/B
e|---------------------------------------------------------------------------------|
B|-------3-------3-------3------3-----3---------3-------3-------3------3------3----|
G|----0--------0-------0------0-----0---0----0--------0-------0------0------0---0--|
D|---------------------------------------------------------------------------------|
A|------------------3-------1-----1------------------------3-------1------1--------|
E|-3--------1-----------------------------3--------1-------------------------------|

en luister, luister, luister
ik stik, ik stik, ik stik in dit verhaal



************************************

| /   slide up
| \   slide down
| h   hammer-on
| p   pull-off
| ~   vibrato
| +   harmonic
| x   Mute note
| b   Bend
| pb  Pre-bend
| br  Bend release
| pbr Pre-bend release
| brb Bend release bend

************************************
Добавлено: 27.07.2015
Вам также может быть интересно:
Другие материалы по этой песне:
  • Аккорды и текст

Страница создана 27.07.2015
http://primanota.ru/eefje-de-visser/trein-chords.htm
Привет, Гость.
Предлагаем пройти революционный курс по гитаре.
Подарок от PrimaNota.Ru, забирай!