PrimaNota.ru - самый крупный в мире бесплатный архив песенных текстов, аккордов, табулатур и нот


Eefje De Visser - Schip - таба, видео

Регистрация Запомнить меня
Войти через:  Facebook Google Twitter Vk Yandex Mail.ru

Eefje De Visser - Schip - таба, видео

Печатать
Просмотров: 62
Авторы музыки: Eefje de Visser
Авторы текста: Eefje de Visser
Intro

e|------------------0----------------------------------0--------------|
B|--------0---------------0----------------0---------------0----------|
G|------------6---------------6----------------6---------------6------|
D|------6-------6-------6-------6----4---4---4---4---4---4---4---4----|
A|--4-------4-------4-------4-----------------------------------------|
E|--------------------------------------------------------------------|

e|--------------------------------------------------------------------|
B|--------0---------------0-------------------------------------------|
G|------------6---------------6------------8-------8-------8-------8--|
D|------6-------6-------6-------6--------9-------9-------9-------9----|
A|--0-------0-------0-------0--------7-------7------------------------|
E|---------------------------------------------------7-------7--------|

e|------------------0----------------------------------0--------------|
B|--------0---------------0----------------0---------------0----------|
G|------------6---------------6----------------6---------------6------|
D|------6-------6-------6-------6----4---4---4---4---4---4---4---4----|
A|--4-------4-------4-------4-----------------------------------------|
E|--------------------------------------------------------------------|

e|--------------------------------------------------------------------|
B|--------0---------------0-------------------------------------------|
G|------------6---------------6------------8-------8-------8-------8--|
D|------6-------6-------6-------6--------9-------9-------9-------9----|
A|--0-------0-------0-------0--------7-------7------------------------|
E|---------------------------------------------------7-------7--------|

e|--------------------------------------------------------------------|
B|--------------------------------------------------------------------|
G|--------6-------6-------6-------6--------6-------6-------6----------|
D|------7-------7-------7-------7--------7-------7-------7-------7----|
A|--------------------------------------------------------------------|
E|--5-------5-------5-------5--------5-------5-------5-------5--------|


Verse 1

e|------------------0----------------------------------0--------------|
B|--------0---------------0----------------0---------------0----------|
G|------------6---------------6----------------6---------------6------|
D|------6-------6-------6-------6----4---4---4---4---4---4---4---4----|
A|--4-------4-------4-------4-----------------------------------------|
E|--------------------------------------------------------------------|

e|--------------------------------------------------------------------|
B|--------0---------------0-------------------------------------------|
G|------------6---------------6------------8-------8-------8-------8--|
D|------6-------6-------6-------6--------9-------9-------9-------9----|
A|--0-------0-------0-------0--------7-------7------------------------|
E|---------------------------------------------------7-------7--------|

e|------------------0----------------------------------0--------------|
B|--------0---------------0----------------0---------------0----------|
G|------------6---------------6----------------6---------------6------|
D|------6-------6-------6-------6----4---4---4---4---4---4---4---4----|
A|--4-------4-------4-------4-----------------------------------------|
E|--------------------------------------------------------------------|

e|--------------------------------------------------------------------|
B|--------0---------------0-------------------------------------------|
G|------------6---------------6------------8-------8-------8-------8--|
D|------6-------6-------6-------6--------9-------9-------9-------9----|
A|--0-------0-------0-------0--------7-------7------------------------|
E|---------------------------------------------------7-------7--------|

e|--------------------------------------------------------------------|
B|--------------------------------------------------------------------|
G|--------6-------6-------6-------6--------6-------6-------6----------|
D|------7-------7-------7-------7--------7-------7-------7-------7----|
A|--------------------------------------------------------------------|
E|--5-------5-------5-------5--------5-------5-------5-------5--------|

e|--------------------------------------------------------------------|
B|--------------------------------------------------------------------|
G|---------1------1-------1-------1--------1-------1-------1----------|
D|------2-------2-------2-------2--------2-------2-------2-------2----|
A|--------------------------------------------------------------------|
E|--0-------0-------0-------0--------0-------0-------0-------0--------|

e|--------------------------------------------------------------------|
B|--------------------------------------------------------------------|
G|--------4-------4-------4-------4--------4-------4-------4----------|
D|------4-------4-------4-------4--------4-------4-------4-------4----|
A|--2-------2-------2-------2--------2-------2-------2-------2--------|
E|--------------------------------------------------------------------|

e|--------------------------------------------------------------------|
B|--------------------------------------------------------------------|
G|--------2-------2-------2-------2--------2-------2-------2----------|
D|------2-------2-------2-------2--------2-------2-------2-------2----|
A|--0-------0-------0-------0--------0-------0-------0-------0--------|
E|--------------------------------------------------------------------|


Verse 2

e|------------------0----------------------------------0--------------|
B|--------0---------------0----------------0---------------0----------|
G|------------6---------------6----------------6---------------6------|
D|------6-------6-------6-------6----4---4---4---4---4---4---4---4----|
A|--4-------4-------4-------4-----------------------------------------|
E|--------------------------------------------------------------------|

e|------------------0-------------------------------------------------|
B|--------0---------------0-------------------------------------------|
G|------------6---------------6------------8-------8-------8-------8--|
D|------6-------6-------6-------6--------9-------9-------9-------9----|
A|--0-------0-------0-------0--------7-------7------------------------|
E|---------------------------------------------------7-------7--------|

e|------------------0----------------------------------0--------------|
B|--------0---------------0----------------0---------------0----------|
G|------------6---------------6----------------6---------------6------|
D|------6-------6-------6-------6----4---4---4---4---4---4---4---4----|
A|--4-------4-------4-------4-----------------------------------------|
E|--------------------------------------------------------------------|

e|--------------------------------------------------------------------|
B|--------0---------------0-------------------------------------------|
G|------------6---------------6------------8-------8-------8-------8--|
D|------6-------6-------6-------6--------9-------9-------9-------9----|
A|--0-------0-------0-------0--------7-------7------------------------|
E|---------------------------------------------------7-------7--------|

e|--------------------------------------------------------------------|
B|--------------------------------------------------------------------|
G|--------6-------6-------6-------6--------6-------6-------6----------|
D|------7-------7-------7-------7--------7-------7-------7-------7----|
A|--------------------------------------------------------------------|
E|--5-------5-------5-------5--------5-------5-------5-------5--------|

e|--------------------------------------------------------------------|
B|--------------------------------------------------------------------|
G|---------1------1-------1-------1--------1-------1-------1----------|
D|------2-------2-------2-------2--------2-------2-------2-------2----|
A|--------------------------------------------------------------------|
E|--0-------0-------0-------0--------0-------0-------0-------0--------|

e|--------------------------------------------------------------------|
B|--------3-------3-------3-------3--------3-------3-------3----------|
G|--------4-------4-------4-------4--------4-------4-------4----------|
D|------4-------4-------4-------4--------4-------4-------4-------4----|
A|--2-------2-------2-------2--------2-------2-------2-------2--------|
E|--------------------------------------------------------------------|

e|--------------------------------------------------------------------|
B|--------0-------0-------0-------0--------0-------0-------0----------|
G|--------2-------2-------2-------2--------2-------2-------2----------|
D|------2-------2-------2-------2--------2-------2-------2-------2----|
A|--0-------0-------0-------0--------0-------0-------0-------0--------|
E|--------------------------------------------------------------------|

e|------------------0----------------------------------0--------------|
B|--------0---------------0----------------0---------------0----------|
G|------------1---------------1----------------1---------------1------|
D|------2-------2-------2-------2--------2-------2-------2-------2----|
A|--------------------------------------------------------------------|
E|--0-------0-------0-------0--------0-------0-------0-------0--------|

e|------------------2----------------------------------2--------------|
B|--------3---------------3----------------3---------------3----------|
G|------------4---------------4----------------4---------------4------|
D|------4-------4-------4-------4--------4-------4-------4-------4----|
A|--2-------2-------2-------2--------2-------2-------2-------2--------|
E|--------------------------------------------------------------------|

e|------------------0----------------------------------0--------------|
B|--------0---------------0----------------0---------------0----------|
G|--------2---2-----------2---2------------2---2-----------2---2------|
D|------2-------2-------2-------2--------2-------2-------2-------2----|
A|--0-------0-------0-------0--------0-------0-------0-------0--------|
E|--------------------------------------------------------------------|


Intermezzo

e|--------------------------------------------------------------------|
B|--------------------------------------------------------------------|
G|--------------------------------------------------------------------|
D|--------------------------------------------------------------------|
A|--4------------------------------------------------7----------------|
E|------------------2----------------0--------------------------------|

e|--------------------------------------------------------------------|
B|--------------------------------------------------------------------|
G|--------------------------------------------------------------------|
D|--------------------------------------------------------------------|
A|--2---------------0-------------------------------------------------|
E|-----------------------------------2---------------5----------------|

e|--------------------------------------------------------------------|
B|--------------------------------------------------------------------|
G|--------------------------------------------------------------------|
D|--------------------------------------------------------------------|
A|--4------------------------------------------------7----------------|
E|------------------2----------------0--------------------------------|

e|--------------------------------------------------------------------|
B|--------------------------------------------------------------------|
G|--------------------------------------------------------------------|
D|--------------------------------------------------------------------|
A|--2---------------0-------------------------------------------------|
E|-----------------------------------2---------------5----------------|

e|--------------------------------------------------------------------|
B|--------------------------------------------------------------------|
G|------2-------2-------2-------2-------------------------------------|
D|---------------------------------------2-------2-------2-------2----|
A|--0-------0-------0-------0-----------------------------------------|
E|-----------------------------------0-------0-------0-------0--------|

e|--------------------------------------------------------------------|
B|--------------------------------------------------------------------|
G|------4-------4-------2-------2-------------------------------------|
D|---------------------------------------4-------4-------7------------|
A|--2-------2-------0-------0-----------------------------------------|
E|-----------------------------------2-------2-------5-------5--------|


Ending Part

e|--------------------------------------------------------------------|
B|--5---------5-----5---------5------0---------0-----0---------0------|
G|--------6---------------6----------------1---------------1----------|
D|------6-------6-------6-------6--------2-------2-------2-------2----|
A|--4-------4-------4-------4-----------------------------------------|
E|-----------------------------------0-------0-------0-------0--------|

e|------------2--------------------------------0---------------0------|
B|--3-------------3-----------3------0---------------0----------------|
G|--------4---------------4----------------2---------------2----------|
D|------4-------4-------4-------4--------2-------2-------2-------2----|
A|--2-------2-------2-------2--------0-------0-------0-------0--------|
E|--------------------------------------------------------------------|

e|------------0---------------0----------------0----------------------| )
B|--2---------------2----------------0---------------0---------0------| )
G|--4-----3---------4-----3----------------1---------------1----------| )
D|------4-------4-------4-------4--------2-------2-------2-------2----| )
A|--------------------------------------------------------------------| )
E|--2-------2-------2-------2--------0-------0-------0-------0--------| )
                                                                      | )x7
e|------------2---------------2----------------0---------------0------| )
B|--3---------------3----------------0---------------0----------------| )
G|--------4---------------4----------------2---------------2----------| )
D|------4-------4-------4-------4--------2-------2-------2-------2----| )
A|--2-------2-------2-------2--------0-------0-------0-------0--------| )
E|--------------------------------------------------------------------| )

e|--------------------------------------------------------------------|
B|--------------------------------------------------------------------|
G|--6-----------------------------------------------------------------|
D|--------------------------------------------------------------------|
A|--4-----------------------------------------------------------------|
E|--------------------------------------------------------------------|
Добавлено: 10.06.2016
Другие материалы по этой песне:
  • Аккорды и текст

Страница создана 10.06.2016
http://primanota.ru/eefje-de-visser/schip-chords.htm
Привет, Гость.
Предлагаем пройти революционный курс по гитаре.
Подарок от PrimaNota.Ru, забирай!