PrimaNota.ru - самый крупный в мире бесплатный архив песенных текстов, аккордов, табулатур и нот


Eefje De Visser - Ongeveer - таба, видео

Регистрация Запомнить меня
Войти через:  Facebook Google Twitter Vk Yandex Mail.ru

Eefje De Visser - Ongeveer - таба, видео

Печатать
Просмотров: 125
Авторы музыки: Eefje de Visser
Авторы текста: Eefje de Visser
Eefje de Visser - Ongeveer
song: https://www.youtube.com/watch?v=vC_kKMHZGpk
NB: er zitten kleine variaties in de tokkelpartij gedurende het liedje

CAPO II

INTRO (zijn ook de akkoorden van de verses, 4x)
   Em      C       Em/A    C       Em      G       A       C
e|-----------------------------------------------------------------|
B|-----------------------------------------------------------------|
G|----0-------0-------0-------0-------0-------0-------2-------0----|
D|---2---2---2---2---2---2---2---2---2---0---0---0---2---2---2---2-|
A|---------3---3---0---0---3---3-------------------0---0---3---3---|
E|-0---0---------------------------0---0---3---3-------------------|

C

VERSE 1
    Em  C  Em/A        C
Het is     ongeveer de avond
Em              G    A           C    Em  C     
maakt niet veel uit, alles is het zelfde
Em/A          C          
En we zijn verschillend, 
Em           G          A          C
doet er niet toe, en je tekent ons grijs


PRE-CHORUS
   Bm      G       A       Gsus9
e|--------------------------------------------------|
B|--------------------------------------0-------0---|
G|----4-------0-------2-------2---2---2---2---2---2-|
D|---4---4---0---0---2---2---0---0---0---0---0---0--|
A|-2---2-----------0---0----------------------------|
E|---------3---3-----------3---3---3---3---3---3----|

Bm            G              A         Gsus9
Van de winter wordt het koud en als de sneeuw smelt

CHORUS
   Bm              A               Csus9           Gadd6
e|---------2---------------0---------------0---------------0-------|
B|------3-------3-------2-------2-------3-------3-------3-------3--|
G|----4-------4-------2-------2-------0-------0-------0-------0----|
D|---4---4---4---4---2---2---2---2---2---0---2---0---0---0---0---0-|
A|-2---2---2---2---0---0---0---0---3---3---3---3-------------------|
E|-------------------------------------------------3---3---3---3---|

    Bm    A  Csus9  Gadd6 
Dan rij ik     

   Bm              F#m             Asus9           Emsus4
e|---------2---------------2---------------0---------------0-------|
B|------3-------3-------2-------2-------0-------0-------0-------0--|
G|----4-------4-------2-------2-------2-------2-------2-------2----|
D|---4---4---4---4---4---4---4---4---2---2---2---2---2---2---2---2-|
A|-2---2---2---2-------------------0---0---0---0-------------------|
E|-----------------2---2---2---2-------------------0---0---0---0---|
         Bm    F#m   Asus9   Emsus4
naar het zuiden. 

   Bm      A  Csus9  Gadd6 
Ik heb hier          iets
     Bm    F#m   Asus9   Emsus4
te bewijzen

INTERLUDE (speel hier de intro 2x)

VERSE 2
    Em  C  Em/A        C
Het is     ongeveer de zomer, 
Em           G  A          C     
ieder seizoen   lijkt op elkaar
    Em   C  Em/A           C
Het maakt   niet zoveel verschil, je 
Em             G  A              C     
tekent het jaar   als een rechte lijn door

PRE-CHORUS
Bm            G              A         Gsus9
Van de winter wordt het koud en als de sneeuw smelt

CHORUS
    Bm    A  Csus9  Gadd6 
Dan rij ik   
         Bm    F#m   Asus9   Emsus4
naar het zuiden. 

   Bm      A  Csus9  Gadd6 
Ik heb hier          iets
     Bm    F#m   Asus9   Emsus4
te bewijzen

BRIDGE
   A               C#m             A#5sus9           
e|-----------------------------------------------------------------|
B|------5-------5-------5-------5-------6-------6-------6-------6--|
G|----6-------6-------6-------6-------5---5---5---5---5---5---5----|
D|---7---7---7---7---6---6---6---0---0---0---0---0---0---0---0---0-|
A|-----------------4---4---4---4-----------------------------------|
E|-5---5---5---5-------------------6---6---6---6---6---6---6---6---|

    A   C#m  A#5sus9
Dan rij ik     in jouw auto 

OUTRO (luister naar het nummer om dit goed te spelen)
e|------------------------------------------|
B|------------------------------------------|
G|----3---3---3---3---3---3---7---7---7---7-|
D|---0---0---0---0---0---0---5---5---5---5--|
A|---------1---1---3---3---6---6---6---6----|
E|-3---3------------------------------------|

Ik heb een 
punt te 
maken

Oh oh mmm oh oh mmm mmmm
Добавлено: 27.07.2015
Другие материалы по этой песне:
  • Аккорды и текст

Страница создана 27.07.2015
http://primanota.ru/eefje-de-visser/ongeveer-chords.htm
Привет, Гость.
Предлагаем пройти революционный курс по гитаре.
Подарок от PrimaNota.Ru, забирай!