PrimaNota.ru - самый крупный в мире бесплатный архив песенных текстов, аккордов, табулатур и нот


Edward Sharpe & the Magnetic Zeros - In The Lion - таба, видео

Регистрация Запомнить меня
Войти через:  Facebook Google Twitter Vk Yandex Mail.ru

Edward Sharpe & the Magnetic Zeros - In The Lion - таба, видео

Печатать
Просмотров: 101
-------------------------------------------------------------------------------
                             SONG NAME - Band Name
-------------------------------------------------------------------------------
Tabbed by:This Guy

Tuning: Standard

The song is the same thing the whole way through with three chords. If I'm wrong, just 
comment the correction on the bottom, but I'm pretty sure it's just C, G, and F the whole song.


Here is how I like to play the chords in this song:

       C                     G            F

e|-------8------------------3------------1----------------------------------------|
B|-------5------------------0------------1----------------------------------------|
G|-------5------------------0------------2----------------------------------------|
D|-------5------------------0------------3----------------------------------------|
A|--------------------------------------------------------------------------------|
E|--------------------------------------------------------------------------------|



Here are how the chords usually are:

               C                   G             F(same)
e|---------------------------------3-----------------1----------------------------|
B|-----------1---------------------3-----------------1----------------------------|
G|-----------0---------------------0-----------------2----------------------------|
D|-----------2---------------------0-----------------3----------------------------|
A|-----------3---------------------2----------------------------------------------|
E|---------------------------------3----------------------------------------------|




C                                                  G
In the lion, there's a heart breaking by the fire
               F                                            C
And in the fire, there's a flame that want to be the waterfall
         C                                        G
In the water, there's a fishy swimming by the lovers
         F                                           C
And in the lover, there's a tear that gonna be the inferno
    C                                             G
In the lion, there's a heart breaking by the fire
          F                                                    C
But in the fire, there's a heat to enough to cage around your soul


You get the idea after that...

I feel the love, I feel the love, I feel the power
It's getting weirder by the hour
The world is fucked up but I want to stay
I feel the love, I feel the love, I feel the power
I'm tough enough to be a flower
The world is fucked up but I want to stay

In the lion, I was holidaying as a vegan
I was eaten by a so sophisticated animal
We went walking by the slopes of Kilimanjaro
When the sparrow had to light a match to make the waterfall
In the water, there's a price in heating by the fire
But in the fire, there's a heat to melt the cage around your soul

I feel the love, I feel the love, I feel the power
It's getting weird by the hour
The world is fucked up but I want to stay
I feel the love, I feel the love, I feel the power
I'm tough enough to be a flower
The world is fucked up but I want to stay

I feel the love, I feel the love
I feel the love, I feel the love
Na na na na na na na but
I want to stay…
Добавлено: 30.12.2013
Другие материалы по этой песне:
  • Аккорды и текст

Страница создана 12.12.2013
http://primanota.ru/edward-sharpe-and-the-magnetic-zeros/in-the-lion-chords.htm
Привет, Гость.
Предлагаем пройти революционный курс по гитаре.
Подарок от PrimaNota.Ru, забирай!