PrimaNota.ru - самый крупный в мире бесплатный архив песенных текстов, аккордов, табулатур и нот


Edward Mote - The Solid Rock - таба, видео

Регистрация Запомнить меня
Войти через:  Facebook Google Twitter Vk Yandex Mail.ru

Edward Mote - The Solid Rock - таба, видео

Печатать
Просмотров: 64
-------------------------------------------------------------------------------
                           the solid rock - Edward Mote
-------------------------------------------------------------------------------
Tabbed by:
E-mail:
key of F
Tuning:E-A-D-G-B-e

e|---------------------------------------------------------------------------|
B|-------------1-------------------------------------------------------------|
G|---------2--------2---2--0----0----2----3-3---3----0-----------------------|
D|-----3---3---3----3---3--2----2----3----3-3---3----0----3--2--3---------3--|
A|-3---3--------------------------------------------------3--3--3-----3---3--|
E|---------------------------------------------------------------------------|
  my hope is built on nothing less than Jesus blood and righteousness I dare
e|---------------------------------------------------------------------------|
B|------1--------------------------------------------------------------------|
G|-2---------2----2--0------0---2---3--3----3---0----------------------------|
D|-3----3----3----3--2------2---3---3--3----3---0--3--2---3------------------|
A|-------------------------------------------------3--3---3------------------|
E|---------------------------------------------------------------------------|
  not trust the sweetest frame but wholly lean on Jesus name
e|---------------------------------------------------------------------------|
B|------1----1----1---1--1--3---3---3----3---1-------------------------------|
G|---------------------------------------------2-----2--------2--2----0------|
D|------3----3----2---3--3--3---3---3----3---3------------3------------------|
A|---------------------------------------------3-----3----3---3--3----3---3--|
E|---------------------------------------------------------------------------|
chorus on christ the solid rock I stand all other ground is sinking sand all
e|---------------------------------------------------------------------------|
B|---------------------------------------------------------------------------|
G|--------------2--0---0-----------------------------------------------------|
D|3--3-----3----------------3------------------------------------------------|
A|3--0-----5----3--3---1----0------------------------------------------------|
E|---------------------------------------------------------------------------|
  other ground is sinking sand


************************************

| /   slide up
| \   slide down
| h   hammer-on
| p   pull-off
| ~   vibrato
| +   harmonic
| x   Mute note
| b   Bend
| pb  Pre-bend
| br  Bend release
| pbr Pre-bend release
| brb Bend release bend

************************************
Добавлено: 03.06.2016
Другие материалы по этой песне:
  • Аккорды и текст

Страница создана 03.06.2016
http://primanota.ru/edward-mote/solid-rock-chords.htm
Привет, Гость.
Предлагаем пройти революционный курс по гитаре.
Подарок от PrimaNota.Ru, забирай!