PrimaNota.ru - самый крупный в мире бесплатный архив песенных текстов, аккордов, табулатур и нот


Eduardo Sainz De La Maza - Campanas Del Alba - таба, видео

Регистрация Запомнить меня
Войти через:  Facebook Google Twitter Vk Yandex Mail.ru

Eduardo Sainz De La Maza - Campanas Del Alba - таба, видео

Печатать
Просмотров: 109
Авторы музыки: Eduardo Sainz de la Maza

Campanas del Alba
Eduardo Sainz De La Maza (1903-1982)


E||----0-0-0---0-0-0---0-0-0---0-0-0---0-0-0---0-0-0-|<--- tremolo
B||----------5-------5-------5-------5-------5-------|
G||--9-----------------------------------------------|
D||--------------------------------------------------|
A||--------------------------------------------------|
E||--------------------------------------------------|

----0-0-0---0-0-0---0-0-0---0-0-0---0-0-0---0-0-0-|<--- tremolo
----------5-------5-------5-------5-------5-------|
--9-----------------------------------------------|
--------------------------------------------------|
--------------------------------------------------|
--------------------------------------------------|

----0-0-0---0-0-0---0-0-0---0-0-0---0-0-0---0-0-0-|
----------5---------------5---------------5-------|
------------------0-------------------------------|
--7-------------------------------9---------------|
--------------------------------------------------|
--------------------------------------------------|

----0-0-0---0-0-0---0-0-0---0-0-0---0-0-0---0-0-0-|
----------5---------------5---------------5-------|
------------------9---------------9---------------|
--7-----------------------------------------------|
--------------------------------------------------|
--------------------------------------------------|

    NH                  NH                  NH 
------0-0-0-----0-0-0------0-0-0----0-0-0------0-0-0------0-0-0-|
--------------5-----------------------------12------------------|
------------------------12------------------------------0-------|
----7----------------------------10-----------------------------|
----------------------------------------------------------------|
----------------------------------------------------------------|

   NH                                          
------0-0-0-----0-0-0-----0-0-0-----0-0-0-----0-0-0-----0-0-0-|
--------------5-------------------5-------------------5-------|
------------------------9-------------------9-----------------|
----7---------------------------------------------------------|
--------------------------------------------------------------|
--------------------------------------------------------------|

                           
----0-0-0---0-0-0---0-0-0---0-0-0---0-0-0---0-0-0-|
----------9---------------9---------------9-------|
--5-------------------------------7---------------|
------------------8-------------------------------|
--------------------------------------------------|
--------------------------------------------------|

                           
----0-0-0---0-0-0---0-0-0---0-0-0---0-0-0---0-0-0-|
----------9---------------9---------------9-------|
--5-------------------------------7---------------|
------------------8-------------------------------|
--------------------------------------------------|
--------------------------------------------------|

                           
----0-0-0---0-0-0---0-0-0---0-0-0---0-0-0---0-0-0-|
----------5---------------5---------------5-------|
------------------0-------------------------------|
--7-------------------------------9---------------|
--------------------------------------------------|
--------------------------------------------------|


                           
----0-0-0---0-0-0---0-0-0---0-0-0---0-0-0---0-0-0-|
----------5---------------5---------------5-------|
------------------9---------------9---------------|
--7-----------------------------------------------|
--------------------------------------------------|
--------------------------------------------------|


                           
----0-0-0---0-0-0---0-0-0---0-0-0---0-0-0---0-0-0-|
----------5---------------5---------------5-------|
--9---------------9---------------9---------------|
--------------------------------------------------|
--------------------------------------------------|
--------------------------------------------------|


                             
|-----5-5-5---5-5-5---5-5-5---5-5-5---3-3-3---3-3-3-|
|---------------------------------------------------|
|*------------------5---------------4---------------|
|*----------2---------------2---------------2-------|
|---0-----------------------------------------------|
|---------------------------------------------------|


                           
----2-2-2---2-2-2---2-2-2---2-2-2---3-3-3---3-3-3-|
--------------------------------------------------|
------------------5---------------4---------------|
----------2---------------2---------------2-------|
--0-----------------------------------------------|
--------------------------------------------------|


                           
----5-5-5---7-7-7---5-5-5---5-5-5---3-3-3---3-3-3-|
--------------------------------------------------|
----------7-------5---------------4---------------|
--------------------------2---------------2-------|
--0-----------------------------------------------|
--------------------------------------------------|


                           
----2-2-2---2-2-2---2-2-2---2-2-2---3-3-3---3-3-3-|
--------------------------------------------------|
------------------5---------------4---------------|
----------2---------------2---------------2-------|
--0-----------------------------------------------|
--------------------------------------------------|


                           
----2-2-2---------------------------3-3-3---5-5-5-|
------------3-3-3---5-5-5---5-5-5-----------------|
--------------------------------------------------|
----------4-----------------------2---------------|
--2-----------------------2---------------0-------|
------------------0-------------------------------|


                           
----2-2-2---------------------------2-2-2---------|
------------3-3-3---5-5-5---5-5-5-----------3-3-3-|
--------------------------0-------3---------------|
----------4-------------------------------4-------|
--2---------------3-------------------------------|
--------------------------------------------------|


                           
--------------------------------------------------|
----0-0-0---0-0-0---0-0-0---0-0-0---0-0-0---0-0-0-|
--------------------------0-----------------------|
------------------4---------------4---------------|
----------2-------------------------------2-------|
--0-----------------------------------------------|


                           
--------------------------------------------0-0-0-|
----0-0-0---0-0-0---0-0-0---0-0-0---3-3-3---------|
------------------2---------------1---------------|
--------------------------4---------------2-------|
----------2---------------------------------------|
--0-----------------------------------------------|


                           
----5-5-5---5-5-5---5-5-5---5-5-5---3-3-3---3-3-3-|
--------------------------------------------------|
------------------5---------------4---------------|
----------2---------------2---------------2-------|
--0-----------------------------------------------|
--------------------------------------------------|


                           
----2-2-2---2-2-2---2-2-2---2-2-2---3-3-3---3-3-3-|
--------------------------------------------------|
------------------5---------------4---------------|
----------2---------------2---------------2-------|
--0---------------0-------------------------------|
--------------------------------------------------|


                           
----5-5-5---7-7-7---5-5-5---5-5-5---3-3-3---3-3-3-|
--------------------------------------------------|
----------7-------5---------------4---------------|
--------------------------2---------------2-------|
--0-----------------------------------------------|
--------------------------------------------------|


                           
----2-2-2---2-2-2---2-2-2---2-2-2---3-3-3---3-3-3-|
--------------------------------------------------|
------------------5---------------4---------------|
----------2---------------2---------------2-------|
--0-----------------------------------------------|
--------------------------------------------------|


                           
----2-2-2---------------------------3-3-3---5-5-5-|
------------3-3-3---5-5-5---5-5-5-----------------|
--------------------------------------------------|
----------4-----------------------2-------0-------|
--2-----------------------2-----------------------|
------------------0-------------------------------|


                           
----7-7-7---7-7-7---7-7-7---7-7-7---8-8-8---8-8-8-|
--------------------------------------------------|
------------------0-----------------------7-------|
----------0-----------------------6---------------|
--------------------------------------------------|
--3-----------------------0-----------------------|


                              
----7-7-7---4-4-4---5-5-5---5-5-5---8-8-8---10-10-10-|
-----------------------------------------------------|
----------4-------5----------------------------------|
----------------------------------7-------0----------|
--0-----------------------7--------------------------|
-----------------------------------------------------|


                                         
----7-7-7----------------------------------12-12-12----13-13-13-|
------------8-8-8---10-10-10---10-10-10-------------------------|
----------------------------------------------------12----------|
----------9-----------------------------10----------------------|
--7---------------0----------7----------------------------------|
----------------------------------------------------------------|


                               
-----10-10-10---7-7-7---8-8-8---8-8-8---7-7-7---3-3-3-|
----------------------------------------------0-------|
--10----------7---------------9-------7---------------|
------------------------------------------------------|
----------------------0-------------------------------|
------------------------------------------------------|


                           
----5-5-5---5-5-5---5-5-5---5-5-5---3-3-3---0-0-0-|
------------------3-------------------------------|
----------5---------------5-----------------------|
--3-----------------------------------------------|
------------------------------------------2-------|
----------------------------------0---------------|


                           
----2-2-2---2-2-2---2-2-2---2-2-2---2-2-2---2-2-2-|
----------------------------------0---------------|
------------------5-------------------------------|
----------2---------------2---------------2-------|
--0-----------------------------------------------|
--------------------------------------------------|


                             
----2-2-2---2-2-2---2-2-2---2-2-2---2-2-2---2-2-2--||
----------------------------------0----------------||
------------------5-------------------------------*||
----------2---------------2---------------2-------*||
--0------------------------------------------------||
---------------------------------------------------||


                           
----2-2-2---2-2-2---2-2-2---2-2-2---2-2-2---2-2-2-|
----------------------------------0---------------|
------------------5-------------------------------|
----------2---------------2---------------2-------|
--0-----------------------------------------------|
--------------------------------------------------|


                           
----0-0-0---0-0-0---------------------------------|
--------------------1-1-1---1-1-1---4-4-4---4-4-4-|
------------------2---------------4---------------|
----------4---------------4---------------2-------|
--2-----------------------------------------------|
--------------------------------------------------|


                             
|-----7-7-7---7-7-7---7-7-7---7-7-7---5-5-5---5-5-5-|
|---------------------------------------------------|
|*------------------7---------------6---------------|
|*----------6---------------6---------------4-------|
|---------------------------------------------------|
|---0-----------------------------------------------|


                           
----4-4-4---4-4-4---4-4-4---4-4-4---5-5-5---5-5-5-|
--------------------------------------------------|
------------------4---------------6---------------|
----------2---------------2---------------4-------|
--------------------------------------------------|
--0-----------------------------------------------|


                           
----7-7-7---9-9-9---7-7-7---7-7-7---5-5-5---5-5-5-|
--------------------------------------------------|
--7-------9-------7---------------6---------------|
--------------------------6---------------4-------|
--------------------------------------------------|
--------------------------------------------------|


                           
----4-4-4---4-4-4---4-4-4---4-4-4---5-5-5---5-5-5-|
--------------------------------------------------|
--4-------------------------------6---------------|
----------2---------------2---------------4-------|
--------------------------------------------------|
------------------0-------------------------------|


                                  
----7-7-7---9-9-9---10-10-10----10-10-10---9-9-9---9-9-9-|
---------------------------------------------------------|
--7-------9------------------11----------9---------------|
-------------------------------------------------6-------|
---------------------------------------------------------|
------------------0--------------------------------------|


                           
----5-5-5---5-5-5---0-0-0---0-0-0-----------------|
------------------2-----------------3-3-3---3-3-3-|
----------------------------------4---------------|
----------2---------------2---------------2-------|
--0-----------------------------------------------|
--------------------------------------------------|


                           
--------------------------------------------------|
----2-2-2---2-2-2---2-2-2---0-0-0---2-2-2---3-3-3-|
------------------2-------1-------2-------4-------|
----------2---------------------------------------|
--0-----------------------------------------------|
--------------------------------------------------|


                           
----0-0-0---0-0-0---3-3-3---3-3-3---2-2-2---2-2-2-|
------------------0---------------3---------------|
--------------------------------------------------|
----------2---------------2---------------2-------|
--0-----------------------------------------------|
--------------------------------------------------|


                           
----5-5-5---5-5-5---0-0-0---0-0-0-----------------|
------------------2-----------------3-3-3---3-3-3-|
----------------------------------4---------------|
----------2---------------2---------------2-------|
--0-----------------------------------------------|
--------------------------------------------------|


                           
--------------------------------------------------|
----2-2-2---2-2-2---2-2-2---0-0-0---2-2-2---3-3-3-|
------------------2-------1-------2-------4-------|
----------2---------------------------------------|
--0-----------------------------------------------|
--------------------------------------------------|


                           
----0-0-0---0-0-0---0-0-0---0-0-0---0-0-0---0-0-0-|
------------------2---------------2---------------|
--------------------------------------------------|
----------2---------------2---------------2-------|
--0-----------------------------------------------|
--------------------------------------------------|


                           
----0-0-0---0-0-0---0-0-0---0-0-0---0-0-0---0-0-0-|
------------------2---------------2---------------|
--------------------------------------------------|
----------2---------------2---------------2-------|
--0-----------------------------------------------|
--------------------------------------------------|


                           
----8-8-8---8-8-8---3-3-3---3-3-3---1-1-1---1-1-1-|
------------------------------------------0-------|
--------------------------0-----------------------|
----------7-------2---------------0---------------|
--------------------------------------------------|
--8-----------------------------------------------|


                           
----0-0-0---0-0-0-------------------0-0-0---1-1-1-|
--------------------5-5-5---3-3-3-2-------3-------|
----------0-------6-------4-----------------------|
--------------------------------------------------|
--3-----------------------------------------------|
--------------------------------------------------|


                           
----3-3-3---3-3-3---6-6-6---6-6-6---5-5-5---5-5-5-|
------------------3---------------6---------------|
--------------------------------------------------|
----------5---------------5---------------5-------|
--3-----------------------------------------------|
--------------------------------------------------|


                           
----8-8-8---8-8-8---3-3-3---3-3-3---1-1-1---1-1-1-|
------------------------------------------0-------|
--------------------------0-----------------------|
----------7-------2---------------0---------------|
--------------------------------------------------|
--8-----------------------------------------------|


                           
----0-0-0---0-0-0-------------------0-0-0---1-1-1-|
--------------------5-5-5---3-3-3-2-------3-------|
----------0-------6-------4-----------------------|
--------------------------------------------------|
--3-----------------------------------------------|
--------------------------------------------------|


                           
----3-3-3---3-3-3---3-3-3---3-3-3---3-3-3---3-3-3-|
------------------5---------------5---------------|
--------------------------------------------------|
----------5---------------5---------------5-------|
--3-----------------------------------------------|
--------------------------------------------------|


                           
----3-3-3---3-3-3---3-3-3---3-3-3---3-3-3---3-3-3-|
--------------------------------------------------|
----------0-------7-------0-------7-------0-------|
--------------------------------------------------|
--------------------------------------------------|
--6-----------------------------------------------|


                           
----5-5-5---5-5-5---0-0-0---0-0-0-----------------|
------------------2-----------------3-3-3---3-3-3-|
----------------------------------4---------------|
----------2---------------2---------------2-------|
--0-----------------------------------------------|
--------------------------------------------------|


                           
--------------------------------------------------|
----2-2-2---2-2-2---2-2-2---0-0-0---2-2-2---3-3-3-|
------------------2-------1-------2-------4-------|
----------2---------------------------------------|
--0-----------------------------------------------|
--------------------------------------------------|


                           
----0-0-0---0-0-0---3-3-3---3-3-3---2-2-2---2-2-2-|
------------------0---------------3---------------|
--------------------------------------------------|
----------2---------------2---------------2-------|
--0-----------------------------------------------|
--------------------------------------------------|


                           
----5-5-5---5-5-5---0-0-0---0-0-0-----------------|
------------------2-----------------3-3-3---3-3-3-|
----------------------------------4---------------|
----------2---------------2---------------2-------|
--0---------------0-------------------------------|
--------------------------------------------------|


                           
--------------------------------------------------|
----2-2-2---2-2-2---------------------------------|
--------------------2-2-2---2-2-2---4-4-4---4-4-4-|
----------1---------------0---------------0-------|
--------------------------------------------------|
--2---------------1---------------0---------------|


                           
--------------------------------------------------|
--------------------------------------------------|
----2-2-2---2-2-2---2-2-2---2-2-2---2-2-2---2-2-2-|
----------2---------------2---------------4-------|
--0---------------4---------------5---------------|
--------------------------------------------------|


                             
---------------------------------------------------||
---------------------------------------------------||
----2-2-2---2-2-2---2-2-2---2-2-2---2-2-2---2-2-2-*||
----------2---------------2---------------4-------*||
--0---------------4---------------5----------------||
---------------------------------------------------||


                           
--------------------------------------------------|
--------------------------------------------------|
----2-2-2---2-2-2---2-2-2---2-2-2---2-2-2---2-2-2-|
----------2---------------2---------------4-------|
--0---------------4---------------5---------------|
--------------------------------------------------|


                           
--------------------------------------------------|
--------------------------------------------------|
----2-2-2---2-2-2---2-2-2---2-2-2---2-2-2---2-2-2-|
----------2---------------2---------------4-------|
--0---------------4---------------5---------------|
--------------------------------------------------|


                           
----5-5-5---5-5-5---5-5-5---3-3-3---8-8-8---7-7-7-|
--------------------------------------------------|
------------------5-------4-------9-------7-------|
----------2---------------------------------------|
--0-----------------------------------------------|
--------------------------------------------------|


                           
----5-5-5---5-5-5---5-5-5---5-5-5---5-5-5---5-5-5-|
--------------------------0-----------------------|
------------------5---------------5---------------|
----------2-------------------------------2-------|
--0-----------------------------------------------|
--------------------------------------------------|

             
                                                       NH
----5-5-5---5-5-5---5-5-5---5-5-5---5-5-5---5-5-5-|-----------------|
--------------------------0-----------------------|----7------------|
------------------5---------------5---------------|----7------------|
----------3-------------------------------3-------|----7------------|
--0-----------------------------------------------|----7------------|
--------------------------------------------------|----7------------|



--12-------------||
---9-------------||
-----------------||
--11-------------||
---0-------------||
-----------------||


hope u like.
NH - natural harmonic.

kid©2007™
Добавлено: 16.03.2012
Другие материалы по этой песне:

Страница создана 16.03.2012
http://primanota.ru/eduardo-sainz-de-la-maza/campanas-del-alba-chords.htm
Привет, Гость.
Предлагаем пройти революционный курс по гитаре.
Подарок от PrimaNota.Ru, забирай!