PrimaNota.ru - самый крупный в мире бесплатный архив песенных текстов, аккордов, табулатур и нот


Eduard Khil - Trololo - таба, видео

Регистрация Запомнить меня
Войти через:  Facebook Google Twitter Vk Yandex Mail.ru

Eduard Khil - Trololo - таба, видео

Печатать
Просмотров: 787
Уроки эстрадного вокала в Санкт-Петербурге
I know there's also a pro tab for this, but I thought I'd contribute
my text version that has slightly different fingerings.
Tune to  drop D. Remember to grin wildly throughout.

e-----------------------------------------|
B-----------------------------------------|
G----5--------------------------------24--|
D----------5-3-5--------2--5--2-----35----|
A-------------------3-5---------5---------|
D-----------------------------------------|


e-----------------------------------------|
B-----------------------------------------|
G----5---------------------------------5--|
D----------5-3-5--------2--2---------25---|
A-------------------3-5--------5-3--3-----|
D-----------------------------------------|

e------------------------------------------|
B------------------------------------------|
G----4-4-2-2--------------54-4-2-2------24-|
D-------5---35---232----25----5---35--35---|
A--------------35------3-------------------|
D------------------------------------------|

e-----------------------------------------|
B-----------------------------------------|
G----5---------------------------------5--|
D----------5-3-5--------2--2---------25---|
A-------------------3-5--------5-3--3-----|
D-----------------------------------------|

e-----------------------------------------|
B-----3-----------------------------------|
G----4-4252-4--2-------54-4-2-2-------24--|
D----------5-53-32---25----5---35---35----|
A-------------------3---------------------|
D-----------------------------------------|

e---------------------------------------|
B---------------------------------------|
G----5----356(hold for a long time)-----|
D-------45------------------------------|
A---------------------------------------|
D---------------------------------------|

e-------------------------------------------|
B-------------------------------------------|
G-------------------------------35----------|
D----6-4-6(this too)-3-6-3-------46---------|
A------------------46-----6-----------------|
D-------------------------------------------|

e---------------------------------------|
B---------------------------------------|
G----6--------------------------------6-|
D----------6-4-6-------3--3---------36--|
A------------------4-6--------6-4--4----|
D---------------------------------------|

e------------------------------------------|
B------------------------------------------|
G----5-5-3-3--------------65-5-3-3------35-|
D-------6---46---343----36----6---46--46---|
A--------------46------4-------------------|
D------------------------------------------|

e---------------------------------------------|
B---------------------------------------------|
G--6--7//19-(spin around)-19-17-19------------|
D---------------------------------------------|
A---------------------------------------------|
D------------------------------0-2-4-7-4-2----|

e--------10-9-7-----------------------------|
B---------------7-8-10-7-8-10---------------|
G---467-------------------------------------|
D-57------------------------------4--4------|
A-----------------------------5-7-------7-5-|
D-------------------------------------------|

e-----------------------------------------|
B-----------------------------------------|
G----76-6-4-4-------------76-6-4-4--------|
D--47----7---57---454---47----7---57------|
A-5-------------57-----5------------------|
D-----------------------------------------|

e--------------------------------------------------|
B--------------------------------------------------|
G---467---578---467----578---46764-46764-46764-467-|
D-57----68----57-----68----57-----7-----7-----7----|
A--------------------------------------------------|
D--------------------------------------------------|

e-----------------------------------------|
B-----------------------------------------|
G----8--------------------------------57--|
D----------8-6-8--------5--8--5-----68----|
A-------------------6-8---------8---------|
D-----------------------------------------|


e-----------------------------------------|
B-----------------------------------------|
G----8---------------------------------5--|
D----------8-6-8--------5--5---------25---|
A-------------------6-8--------8-6--3-----|
D-----------------------------------------|

e--------------------------------------------------------------|
B--------------------------------------------------------------|
G----4-4-2-2--------------54-4-2-2------245(walk off stage)----|
D-------5---35---232----25----5---35--35-----------------------|
A--------------35------3---------------------------------------|
D--------------------------------------------------------------|
Добавлено: 29.02.2012
Другие материалы по этой песне:

Страница создана 29.02.2012
http://primanota.ru/eduard-khil/trololo-chords.htm
Привет, Гость.
Предлагаем пройти революционный курс по гитаре.
Подарок от PrimaNota.Ru, забирай!