PrimaNota.ru - самый крупный в мире бесплатный архив песенных текстов, аккордов, табулатур и нот


Ednas Goldfish - I'm Your Density - аккорды и текст, видео

Регистрация Запомнить меня
Войти через:  Facebook Google Twitter Vk Yandex Mail.ru

Ednas Goldfish - I'm Your Density - аккорды и текст, видео

Печатать
Просмотров: 77
I'm Your Density
Ednas Goldfish
Intro/Verse:	[e:--5-7-5-9----------------------------------------------
B:--5-7-5-9----------------------------------------------
G:--6-7-6-9----------------------------------------------
D:--7-7-7-9----------------------------------------------
A:--7-5-7-7----------------------------------------------
E:--5-5-5-7----------------------------------------------

Bridge:		e:--12-14------------------------------------------------
B:--12-14------------------------------------------------
G:--13-14------------------------------------------------
D:--14-14------------------------------------------------
A:--14-12------------------------------------------------
E:--12-12------------------------------------------------]
Добавлено: 29.05.2014
Другие материалы по этой песне:
  • Аккорды и текст

Страница создана 29.05.2014
http://primanota.ru/ednas-goldfish/im-your-density-chords.htm
Привет, Гость.
Предлагаем пройти революционный курс по гитаре.
Подарок от PrimaNota.Ru, забирай!