PrimaNota.ru - самый крупный в мире бесплатный архив песенных текстов, аккордов, табулатур и нот


Edl - Represent - аккорды и текст, видео

Регистрация Запомнить меня
Войти через:  Facebook Google Twitter Vk Yandex Mail.ru

Edl - Represent - аккорды и текст, видео

Печатать
Просмотров: 77
Represent
Edl
"Represent" - EDL
Taken from the album "Moment of Clarity"
Tabbed by Tim Millard (millartj@wilkes1.wilkes.edu)
Drop D tuning down a half step (Db Ab Db Gb Bb Eb)

Intro:

This also shows up at the end of the chorus...

Eb --------------------------------
Bb ------3-------3-------3-------3-
Gb ------2-------2-------2-------2-
Db -3-0--0--3-0--0--3-0--0--3-0--0-
Ab -3-0--0--3-0--0--3-0--0--3-0--0-
Db -3-0--0--3-0--0--3-0--0--3-0--0-

Verse:

Eb ----0-------------0-------------
Bb -3----3---------3---3----3(b)-3-
Gb -2------2-----2-------2--2(b)-2-
Db -0--------(0)-------------------
Ab --------------------------------
Db --------------------------------

Chorus:

Eb -----------------------------------------------
Bb --------------------------------------3------3-
Gb -4-4-4-4-4-4-4------------------------2------2-
Db -4-4-4-4-4-4-4-0-5-5-5-5-5-5-5-5--3-0-0--3-0-0-
Ab -2-2-2-2-2-2-2-0-5-5-5-5-5-5-5-5--3-0-0--3-0-0-
Db ---------------0-5-5-5-5-5-5-5-5--3-0-0--3-0-0-

For the last time before the verse, play this:

Eb -------------------------------------------------
Bb -----------------------------------------------3-
Gb -4-4-4-4-4-4-4--------------------5-4----------2-
Db -4-4-4-4-4-4-4-0-5-5-5-5-5-5-5-5--5-4-0-3--3-0-0-
Ab -2-2-2-2-2-2-2-0-5-5-5-5-5-5-5-5--3-2-0-3--3-0-0-
Db ---------------0-5-5-5-5-5-5-5-5------0-3--3-0-0-

Break:

Eb -0------0------0------0------0-----
Bb ---3------3------3------3------3---
Gb -----2------2------2------2------2-
Db -----------------------------------
Ab -----------------------------------
Db -----------------------------------

     
Добавлено: 17.06.2013
Другие материалы по этой песне:
  • Аккорды и текст

Страница создана 17.06.2013
http://primanota.ru/edl/represent-chords.htm
Привет, Гость.
Предлагаем пройти революционный курс по гитаре.
Подарок от PrimaNota.Ru, забирай!