PrimaNota.ru - самый крупный в мире бесплатный архив песенных текстов, аккордов, табулатур и нот


Editors - Fingers In The Factories - аккорды и текст, таба, бас-таба, драм-таба, видео

Регистрация Запомнить меня
Войти через:  Facebook Google Twitter Vk Yandex Mail.ru

Editors - Fingers In The Factories - аккорды и текст, таба, бас-таба, драм-таба, видео

Печатать
Просмотров: 230
Авторы: Ed Lay, Chris Urbanowicz, Russell Leetch, Tom Smith

Fingers In The Factories
Editors
Song: Fingers in the Factories Acoustic
Artist: Editors
Album: The Back Room (2005)
Guitarists: Chris Urbanowicz & Tom Smith 
Tuning: Standard
Tabbed by: Suna1988be & Pini-Glock


Hello everyone! I've been trying to tab this song for a long long time, till I saw this video on Youtube: 
http://www.youtube.com/watch?v=D5ajvDpYFqk&list=UUpneD_YT4j4UQp0MxqFmkzA&index=5 
I asked if they could help me out and they did! 
So I can't take the honour and only want to thank them for helping me out! 

Special thanks to Suna1988be & his cousin. :)

This is aranged for both guitars (the official acoustic video: https://www.youtube.com/watch?v=RhM6QWCbPsQ)

I don't know all these chords, but the ones with a * I named after how they are shaped like. :)

Tom Smith plays all the chords and Chris Urbanowicz plays the lead guitar. 
What might could sound different is that Chris releases the strings and pushes them very fast.

If you have any suggestions or comments, please tell me. :)


All chords are relative to the capo. :)

Cheers!

Nick

---------------------------------------------------------------------------------------------

Capo 2nd fret. 
Intro / Verses:         E A D G B e             Chorus:                 E A D G B e     
Em*:                    0 2 4 0 X X             Em**:                   0 7 5 7 X X 
Am9*:                   5 0 5 0 X X             Dsus4/A:                5 5 4 0 3 0 
Asus2sus4*:             7 0 7 0 X X             C/G:                    3 3 2 0 1 0





Em*                        Am9*                  
Easy said and easy done is how we like this
Asus2sus4*     Am9*                    
Keep us in our place

Em*                                
You're the night, the dirty night
Am9*                    
That keeps us going
Asus2sus4*      Am9*                 
Nothing left to waste


Chris Urbanowicz: No capo ;)

e|------------------------10-| X4
B|------------------------12-|
G|-----4-4-----4-4---4-4-----|
D|---2-------2-----2---------| 
A|---------------------------|
E|---------------------------|

Em*                              
Pull a sentence from your lips 
Am9*                 
To keep them quiet
Asus2sus4*        Am9*
What they want to hear

At: Oh you're the night... Chris starts to play this with up and down strokes (very easy to slide ;)): 

 |Oh you're the..|  |the dirty night  |   |You make us angry|  |There's everything|
e|--4u-4d-4u-4d--|X4|--5u-5d-5u-5d----|X4||--4u-4d-4u-4d----|X4|--2u-2d-2u-2d-----|
B|--5u-5d-5u-5d--|  |--5u-5d-5u-5d----|  ||--5u-5d-5u-5d----|  |--3u-3d-3u-3d-----|
G|--6u-6d-6u-6d--|  |--7u-7d-7u-7d----|  ||--6u-6d-6u-6d----|  |--4u-4d-4u-4d-----|
D|---------------|  |-----------------|  ||-----------------|  |------------------| 
A|---------------|  |-----------------|  ||-----------------|  |------------------| 
E|---------------|  |-----------------|  ||-----------------|  |------------------| 

Em*
Oh you're the night, the dirty night
Am9*
That keeps us going
Asus2sus4*     Am9*
No-one left to fear

At: As the sun goes down... Chris starts to play this.

As the sun..|   |Come and see the sight | Of the ones you love | and the ones you love 
e|-12-12-12-|   |-12-12-12-|            |-12-12-12-|           |-12-12-12-------|      
B|-9--9--9--|   |-10-10-10-|            |-12-12-12-|           |-14-14-14-------|      
G|----------|   |----------|            |----------|           |----------------|      
D|----------|   |----------|            |----------|           |----------------|     
A|----------|   |----------|            |----------|           |----------------|      
E|----------|   |----------|            |----------|           |----------------|      

 |Keep with me...|
e|---------------------------------------| X2
B|-12-12-12-10-10-10-9-9-9---------------|
G|-------------------------9-9-9-9-9-9-9-|
D|---------------------------------------| 
A|---------------------------------------|
E|---------------------------------------|


Em**
As the sun goes down on a broken town
Dsus4/A
And the fingers bleed in the factories
Em**
Come on out tonight, come and see the sight
Dsus4/A
Of the ones you love and the ones you love
C/G
And you
C/G           Dsus4/A       C/G           Dsus4/A
Keep with me, keep with me, keep with me, keep with me

Em*
Smile for once, for a moment
Am9*
It makes us happy
Asus2sus4*      Am9*                
What we need is here

At: Oh you're the night... Chris starts to play this again with up and down strokes (very easy to slide ;)): 

 |Oh you're the..|  |the dirty night  |   |You make us angry|  |There's everything|
e|--4u-4d-4u-4d--|X4|--5u-5d-5u-5d----|X4||--4u-4d-4u-4d----|X4|--2u-2d-2u-2d-----|
B|--5u-5d-5u-5d--|  |--5u-5d-5u-5d----|  ||--5u-5d-5u-5d----|  |--3u-3d-3u-3d-----|
G|--6u-6d-6u-6d--|  |--7u-7d-7u-7d----|  ||--6u-6d-6u-6d----|  |--4u-4d-4u-4d-----|
D|---------------|  |-----------------|  ||-----------------|  |------------------| 
A|---------------|  |-----------------|  ||-----------------|  |------------------| 
E|---------------|  |-----------------|  ||-----------------|  |------------------| 

Em*
Oh you're the night, the dirty night
Am9*
You make us angry
Asus2sus4*            Am9*                 
There's everything to fear

At: As the sun goes down... Chris starts to play this again...

As the sun..|   |Come and see the sight | Of the ones you love | and the ones you love 
e|-12-12-12-|   |-12-12-12-|            |-12-12-12-|           |-12-12-12-------|      
B|-9--9--9--|   |-10-10-10-|            |-12-12-12-|           |-14-14-14-------|      
G|----------|   |----------|            |----------|           |----------------|      
D|----------|   |----------|            |----------|           |----------------|     
A|----------|   |----------|            |----------|           |----------------|      
E|----------|   |----------|            |----------|           |----------------|     

 |Keep with me...|                            | Bridge (no singing) | 
e|---------------------------------------| X6 | 12-12-12-9-9-9-7-7-7-9-9-9-| X4
B|-12-12-12-10-10-10-9-9-9---------------|    |----------------------------|
G|-------------------------9-9-9-9-9-9-9-|    |----------------------------|
D|---------------------------------------|    |----------------------------|
A|---------------------------------------|    |----------------------------|
E|---------------------------------------|    |----------------------------|


At: As the sun goes down... Chris starts to play this again...

As the sun..|   |Come and see the sight | Of the ones you love | and the ones you love 
e|-12-12-12-|   |-12-12-12-|            |-12-12-12-|           |-12-12-12-------|      
B|-9--9--9--|   |-10-10-10-|            |-12-12-12-|           |-14-14-14-------|      
G|----------|   |----------|            |----------|           |----------------|      
D|----------|   |----------|            |----------|           |----------------|     
A|----------|   |----------|            |----------|           |----------------|      
E|----------|   |----------|            |----------|           |----------------|  

Em**
As the sun goes down on a broken town
Dsus4/A
And the fingers bleed in the factories
Em**
Come on out tonight, come and see the sight
Dsus4/A
Of the ones you love and the ones you love
C/G
And you
C/G           Dsus4/A       C/G           Dsus4/A
Keep with me, keep with me, keep with me, keep with me

At: As the sun goes down... Chris starts to play this again...

As the sun..|   |Come and see the sight | Of the ones you love | and the ones you love 
e|-12-12-12-|   |-12-12-12-|            |-12-12-12-|           |-12-12-12-------|      
B|-9--9--9--|   |-10-10-10-|            |-12-12-12-|           |-14-14-14-------|      
G|----------|   |----------|            |----------|           |----------------|      
D|----------|   |----------|            |----------|           |----------------|     
A|----------|   |----------|            |----------|           |----------------|      
E|----------|   |----------|            |----------|           |----------------|  

Em**
As the sun goes down on a broken town
Dsus4/A
And the fingers bleed in the factories
Em**
Come on out tonight, come and see the sight
Dsus4/A
Of the ones you love and the ones you love
C/G
And you
C/G        Dsus4/A          C/G           Dsus4/A
Keep with me, keep with me, keep with me, keep with me


Chris ends on: 

e|-12-12-12-|
B|-9-9-9-9--|
G|----------|
D|----------|
A|----------|
E|----------|
Добавлено: 19.09.2014
Другие материалы по этой песне:

Страница создана 13.05.2012
http://primanota.ru/editors/fingers-in-the-factories-chords.htm
Привет, Гость.
Предлагаем пройти революционный курс по гитаре.
Подарок от PrimaNota.Ru, забирай!