PrimaNota.ru - самый крупный в мире бесплатный архив песенных текстов, аккордов, табулатур и нот


Edisons Children - Outerspaced - бас-таба, видео

Регистрация Запомнить меня
Войти через:  Facebook Google Twitter Vk Yandex Mail.ru

Edisons Children - Outerspaced - бас-таба, видео

Печатать
Просмотров: 60
Уроки эстрадного вокала в Санкт-Петербурге
Edison's Children-Outerspaced
In The Last Waking Moments
Bass Tab

This song is pretty straightforward...but also pretty awesome ^^
The bass is distorted.

0:00-0:22  Keep repeating this riff > Figure 1

G--------------------------------------------------------------------|
D--------------------------------------------------------------------|
A-7-5-7--7-----------------------------------------------------------|
E------5--0-3-0-3-0-3-5-3-0------------------------------------------|

0:22-0:27 Play this small figure > Figure 2
G--------------------------------------------------------------------|
D--------------------------------------------------------------------|
A-3-3-3-3-3-3--------------------------------------------------------|
E-------------5-5-5-5-5-5--------------------------------------------|

0:28-0:43 Play Figure 1 and 2
0:43-1:15 Figure 3
The bass riff is composed from the exact same notes as Figure 1,
but the pace slightly changes and follows the guitar melody.
G--------------------------------------------------------------------|
D--------------------------------------------------------------------|
A-7-5-7---7----------------------------------------------------------|
E-------5--0-3-0-3--0-3-5-3-0----------------------------------------|

1:15-2:26 Play Figure 1 and 2
2:26-3:09 Play Figure 3 until the drums begin.
The bass stops there and the song flows into the next song, which is Spiraling.

So this is the bass tab for Outerspaced by Edison's Children.
The song isn't too hard to play once you get the groove.
If you have any improvements, corrections or suggestions to tab...let me know!
Добавлено: 20.07.2015
Вам также может быть интересно:
Другие материалы по этой песне:
  • Аккорды и текст

Страница создана 20.07.2015
http://primanota.ru/edisons-children/outerspaced-chords.htm
Привет, Гость.
Предлагаем пройти революционный курс по гитаре.
Подарок от PrimaNota.Ru, забирай!