PrimaNota.ru - самый крупный в мире бесплатный архив песенных текстов, аккордов, табулатур и нот


Edisons Children - The Other Other Dimension - бас-таба, видео

Регистрация Запомнить меня
Войти через:  Facebook Google Twitter Vk Yandex Mail.ru

Edisons Children - The Other Other Dimension - бас-таба, видео

Печатать
Просмотров: 42
Edison's Children- The Other Other Dimension
In The Last Waking Moments
Bass Tab

0:00-1:53

Figure 1 (Main riff)
This is kind of the main riff in this crazy song...and I mean crazy in a positive way! ^^ 
Just repeat the figure below, the only difference is that each second time you play it, 
you don't play the 3rd fret on the D string. 
It is an odd time signature, but I'm not good enough at that to say which time signature it is,
but that's why the second time the 3rd fret on the D string isn't played. 

G--------------------------------------------------------------------
D-7----6-5-3-4-5-6-7----6-5-4-5-6-(repeat)---------------------------
A--8-7--------------8-7----------------------------------------------
E--------------------------------------------------------------------

The first figure can also be played like this. 

G--------------------------------------------------------------------
D-7---6-5---5-6-7---6-5--5-6-(repeat)--------------------------------
A--8-7---7-8-----8-7---8---------------------------------------------
E--------------------------------------------------------------------


1:54-2:05 no bass, except a slide at 1:57

G--------------------------------------------------------------------
D--------------------------------------------------------------------
A-------------------------------------------------------------------- 
E-8/15\8-------------------------------------------------------------

2:06-2:23 Figure 2 repeat until next figure starts 
G--------------------------------------------------------------------
D--8-5--8-7----8-5----8-7--------------------------------------------
A-----5----8-5----5-5------------------------------------------------
E--------------------------------------------------------------------

2:24-2:41 Figure 3  it really sounds like a 5 string bass...I'm not sure
Also an odd time figure, hence why the 3rd fret on the E string 
and the 5th fret on the A string are played twice every second time.

G--------------------------------------------------------------------
D--------------------------------------------------------------------
A---------5------5--------5-5-----5------5--------5-5---------------
E---6-5-3--6-5-3--6-5-3-3----6-5-3--6-5-3--6-5-3-3----6-5-3----------
B-3------------------------------------------------------------------

2:42-2:57 slow part Figure 4 
This is basically a figure that has two parts: the first played in G and the second played in A. 
Just listen to the song for timing. 

G--------------------------------------------------------------------
D--------------------------------------------------------------------
A---2/5-7-7-7-7-(repeat)---4/7-9-9-9-9-------------------------------
E-3------7-7-7-----------5------9-9-9--------------------------------


2:58-3:05 return to the main riff, Figure 1
3:06-4:27  return to Figure 3

4:28-4:33 new Figure, Figure 5
Repeat until end

G-------7------7-7------7------7-7-----------------------------------
D-8-7-5--8-7-5----8-7-5--8-7-5----8-7-5------------------------------
A-------------------------------------------------------------------- 
E--------------------------------------------------------------------

4:34-4:45  return to the main riff Figure 1
Yes, that was The Other Other Dimension from Edison's Children, the project from Eric Blackwood and
Pete Trewavas (bass Marillion). This was  a lot of fun to tab.
I don't know if I got everything right, but overall it should be playable along with the song. 

Let me know if anything has to be improved or corrected! 
Добавлено: 20.07.2015
Вам также может быть интересно:
Другие материалы по этой песне:
  • Аккорды и текст

Страница создана 20.07.2015
http://primanota.ru/edisons-children/other-other-dimension-chords.htm
Привет, Гость.
Предлагаем пройти революционный курс по гитаре.
Подарок от PrimaNota.Ru, забирай!