PrimaNota.ru - самый крупный в мире бесплатный архив песенных текстов, аккордов, табулатур и нот


Edie Brickell And New Bohemians - What i am - текст песни, бас-таба, видео

Регистрация Запомнить меня
Войти через:  Facebook Google Twitter Vk Yandex Mail.ru

Edie Brickell And New Bohemians - What i am - текст песни, бас-таба, видео

Печатать
Просмотров: 95
Авторы: Edie Brickell, Kenny Withrow

-----------------------------------------------------------------------------
                  WHAT I AM - Edie Brickell & New Bohemians
-----------------------------------------------------------------------------

Tabbed by: AlphaCentaurus
E-mail: echocentaurus@gmail.com

Tuning: E A D G

This song is played on a fretless five string. This was tabbed on a fretted four string, so  it's just not
gonna sound the same, but it's pretty darn close. The timings aren't exact, but for reference - one dash, like
so: 2-2 denotes a sixteenth note. The rest is all kind of approximately relative.

Starts at about 0:11

INTRO SLIDE:
G|-----|
D|-----|
A|-12\-|
E|-----|

MAIN RIFF:
|------4---------7-----------------------------------------|  [It will probably be easier to play 7 on the E
|---------------------7/9--7------7---------9--------------|  instead of that first 2 on the A string when
|--2------2-2/5----5---------------------------------------|  you repeat the riff]
|-----------------------------5------5-5/7-----7-9--10-----|  


PRE-CHORUS: 
|-------------------------------------------------------|
|--------5--4-------------------7/9--7-------4----------|
|--7---7-------------5--7--5--5---------x-5-----5-7-----|
|---------------x-5-------------------------------------|

|-----------------------------------------------------|
|--------5--4-------------------7/9--7----------4-----|
|--7---7-------------5--7--5--5---------x-5--7--------|
|---------------x-5-----------------------------------|

CHORUS:
|------4---------7-----------------------------------------|
|---------------------7/9--7------7\-----------------------|
|--2------2-2/5----5------------------2--x-2--2-4--5-------| 
|-----------------------------5----------------------------|

SOLO END:
|------4---------7----------|-----------------|
|--------------------7/9--7-|-----7\----------|
|--2------2-2/5----5--------|---------12/-----| 
|---------------------------|-5---------------|


Song Pattern:
INTRO SLIDE x1
MAIN RIFF x8
PRE-CHORUS x1
CHORUS x2
MAIN RIFF x6
PRE-CHORUS x1
CHORUS x9
SOLO END x1
PRE-CHORUS x2
CHORUS for the rest of the song, eventually fading out
Добавлено: 25.11.2015
Другие материалы по этой песне:
  • Аккорды и текст

Страница создана 04.04.2012
http://primanota.ru/edie-brickell-and-new-bohemians/what-i-am-chords.htm
Привет, Гость.
Предлагаем пройти революционный курс по гитаре.
Подарок от PrimaNota.Ru, забирай!