PrimaNota.ru - самый крупный в мире бесплатный архив песенных текстов, аккордов, табулатур и нот


Edie Brickell And New Bohemians - Buffalo Ghost - таба, видео

Регистрация Запомнить меня
Войти через:  Facebook Google Twitter Vk Yandex Mail.ru

Edie Brickell And New Bohemians - Buffalo Ghost - таба, видео

Печатать
Просмотров: 121
Tabbed by Mario Carlo Pittalis (mariocarlo2000@hotmail.com)

(CAPO ON 2ND FRET)

This is the way I play this song on my acoustic guitar.

For each chord written below, play the following sequence:

Intro

Em              C               G               D
--------------- --------------- --------------- -----0---------|
--------0------ --1---1---3---- ----0---------- --3----3-------|
--------0------ --0----0---0--- ---0----------- --2-----2------|
--------2------ --2-----2------ --0------------ 0-----0--0-----|
--------------- 3-------------- --------------- ---------------|
--0-0---------- --------------- 3-------------- ---------------|

Em              C               G               D
--------------- --------------- --------------- ------0--------|
-------0------- --1--3--1------ ----0---------- --3-----3------|
------0-------- --0------0----- ---0----------- --2-------2----|
-----2--------- --2-------2---- --0------------ 0--------------|
--------------- 3-----3-------- --------------- ---------------|
--0------------ --------------- 3-------------- ---------------|

Singing...

Em              C               G               D
--------------- --------------- --------------- ---------------|
-------0------- --1-----3^1---- ----0---------- --3------------|
------0-------- --0--------0--- ---0----------- --2------------|
-----2--------- --2---------2-- --0------------ 0--------------|
--------------- 3-------------- --------------- ---------------|
--0------------ --------------- 3-------------- ---------------|

Em              C               G               D
--------------- --------0------ --------------- ---------------|
-------0------- --1------1----- --------------- --------3------|
------0-------- --0-------0---- --------------- ---------2-----|
-----2--------- --2------------ -----0--------- ----------0----|
--------------- 3-------------- --0>2---------- -0---------0---|
--0------------ --------------- 3-------------- ---------------|

Em              C               G               D
--------------- -----0--------- --------------- ------0--------|
-------0------- --1-----1------ --------------- --3------3-----|
------0-------- --0------0----- ---0----------- --2-------2----|
-----2--------- --2-------2---- --0------------ 0----------0---|
--------------- 3-----3-------- -2------------- ---------------|
--0------------ --------------- 3-------------- ---------------|

Em              C               G               D
--------------- --------------- --------------- ------0--------|
-------0------- 1----3-1------- ----0---------- --3-----3------|
------0-------- 0-------0------ ---0----------- --2------------|
-----2--------- 2--------2----- --0------------ 0---------0----|
--------------- 3---3-3-------- --------------- ---------------|
--0------------ --------------- 3-------------- ---------------|

Em              C               G               D
--------------- ---0----------- --------------- ------0--------|
-------0------- 1-----1-------- --------------- 3--------3-----|
------0-------- 0------0------- ---0----------- 2---------2----|
-----2--------- 2-------2------ --0------------ 0----------0---|
--------------- 3-------------- -2------------- ---------------|
--0------------ --------------- 3-------------- ---------------|

Buffalo Ghost...

Em              C               Em              C
--------------- --------------- --------------- ---------------|
-------0------- 1-------------- -------0------- ---------------|
------0-------- 0-------------- ------0-------- 0--------------|
-----2--------- 2-------------- -----2--------- 2--------------|
--------------- 3-------------- --------------- 3--------------|
--0------------ --------------- --0------------ ---------------|

Em              C               Em              C
--------------- --------------- --------------- ---------------|
-------0------- --------------- -------0------- ---------------|
------0-------- 0-------------- ------0-------- 0--------------|
-----2--------- 2-------------- -----2--------- 2--------------|
--------------- 3-------------- --------------- 3--------------|
--0------------ --------------- --0------------ ---------------|

First Guitar Solo

---------------3-5>7--5-------3>2------------------------------|
5---3-5---5-------------8-7------3-5~~~~(0)--------------------|
--4-------------------------------4----------------------------|
---------------------------------------------------------------|
---------------------------------------------------------------|
---------------------------------------------------------------|

C               G               D
-------0------- --------------- ---------------|
----------1---- --------------- 3--------3-----|
-----------0--- ----0---------- 2---------2----|
------------2-- ----0---------- 0----------0---|
3-------3------ --2------------ ---------------|
--------------- 3-------------- ---------------|

Singing...

Em              C               G               D
--------------- ---0----------- --------------- ------0--------|
-------0------- 1-----1-------- --------------- 3--------3-----|
------0-------- 0------0------- ---0----------- 2---------2----|
-----2--------- 2-------2------ --0------------ 0----------0---|
--------------- 3---3---------- -2------------- ---------------|
--0------------ --------------- 3-------------- ---------------|

Em              C               G               D
--------------- ---------0----- --------------- ------0--------|
-------0------- -------1------- ----0---------- ---------3-----|
------0-------- 0----0--------- ---0----------- 2---------2----|
-----2--------- 2--2----------- --0------------ -0-----0---0---|
--------------- 3-------------- --------------- ---------------|
--0------------ --------------- 3-------------- ---------------|

Em              C               G               D
--------------- ---0----------- --------------- ------0--------|
-------0------- 1-----1-------- ----0---------- -3--------3----|
------0-------- 0------0------- ---0----------- -2---------2---|
-----2--------- 2-------2------ --0------------ 0------0----0--|
--------------- 3---3---------- --------------- ---------------|
--0------------ --------------- 3-------------- ---------------|

Buffalo Ghost...

Em              C               Em              C
--------------- --------------- --------------- ---------------|
-------0------- --------------- -------0------- ---------------|
------0-------- 0-------------- ------0-------- 0--------------|
-----2--------- 2-------------- -----2--------- 2--------------|
--------------- 3-------------- --------------- 3--------------|
--0------------ --------------- --0------------ ---------------|

Em              C               Em              C
--------------- --------------- --------------- ---------------|
-------0------- --------------- -------0------- ---------------|
------0-------- 0-------------- ------0-------- 0--------------|
-----2--------- 2-------------- -----2--------- 2--------------|
--------------- 3-------------- --------------- 3--------------|
--0------------ --------------- --0------------ ---------------|

Em              C
--------------- ---------------|
-------0------- ---------------|
------0-------- 0--------------|
-----2--------- 2--------------|
--------------- 3--------------|
--0------------ ---------------|

    I used to live...

Am7		Dsus2		Dsus2

0---0---0---0-- 0---0---------- ----0----------|
1---1---1---1-- 3-----3-------- ---------3-----|
0---0---0---0-- 2----2--------- 2-------2------|
2---2---2---2-- 0--0----------- -0-------------|
0---0---0---0-- 0-------------- ---------------|
x---x---x---x-- x-------------- ---------------|

G		Dadd9		Em7		Em7
--------------- --------------- -------------- ---------0----|
------3-------- ------3-------- ------3------- -----3----3---|
----0---------- ----2---------- ----0--------- ---0-------0--|
-----0--------- -----0--------- -----2-------- -2--2--2------|
---2----------- ---0----------- ---2---------- --2-----2-----|
3-------------- 2-------------- 0------------- 0-----0-------|

Am7		Dsus2		Dsus2

0---0---0---0-- 0----0----3^0-- ---0--0-------|
1---1---1---1-- 3--3--3--3---3- -3--3--3------|
0---0---0---0-- 2---2---2-----2 --2-----2-----|
2---2---2---2-- 0-0----0------- 0----0--------|
0---0---0---0-- 0-------------- --------------|
x---x---x---x-- x-------------- --------------|

G		Dadd9
--------------- ---------------|
------3-------- ------3--------|
-----0-0---0--- -----2-2---2---|
----0---0-0---- ----0---0-0----|
---2-----2----- ---0-----0-----|
3-------------- 2--------------|

Buffalo Ghost...

Em              C               Em              C
--------------- --------------- --------------- ---------------|
0--0----------- --------------- -------0------- ---------------|
0--0----------- 0-------------- ------0-------- 0--------------|
2--2----------- 2-------------- -----2--------- 2--------------|
--------------- 3-------------- --------------- 3--------------|
0-------------- --------------- --0------------ ---------------|

Em              C               Em              C
--------------- --------------- --------------- ---------------|
-------0------- --------------- -------0------- ---------------|
------0-------- 0-------------- ------0-------- 0--------------|
-----2--------- 2-------------- -----2--------- 2--------------|
--------------- 3-------------- --------------- 3--------------|
--0------------ --------------- --0------------ ---------------|

Em              C
--------------- ---------------|
-------0------- --1------------|
------0-------- --0------------|
-----2--------- --2------------|
--------------- 3--------------|
--0------------ ---------------|


Second Guitar Solo

-----------------------------3-5>7--5-3--5>7-------------------|
5---3-5---5-----------------5-----------5-----5~3-5------------|
--4------------------------------------------------------------|
---------------------------------------------------------------|
---------------------------------------------------------------|
------------------------3--------------------------------------|

---------------------------------------------------------------|
3--5--3--------------------------------------------------------|
--4------4~2---0-0-2~4~~~(1)-------0-2~4~~~(1)-----------------|
----------------2-------------2---2-------------2--------------|
---------------------------------------------------------------|
---------------------------------------------------------------|

---------------------------------------------------------------|
-------3-------------------------------------------------------|
-0-2~4---4~2---0--2-4------------------------------------------|
2---------------------2----------------------------------------|
---------------------------3-----------------------------------|
--------------------------------3------------------------------|

Singing...

Em              C               G               D
--------0------ --------------- --------------- ---------------|
-------0------- ---1---3-1----- ----0---------- -3-------3-----|
------0-------- ----0-----0---- ---0----------- -2--------2----|
--------------- -----2--2------ --0------------ 0----------0---|
--------------- 3-------------- --------------- ---------------|
--0------------ --------------- 3-------------- ---------------|

Em              C               G               D
--------------- --------------- --------------- ---------------|
------0-------- 1-------------- --------------- 3------3-------|
-----0--------- 0-----0-------- ----0---------- 2-------2------|
----2---------- 2----2--------- ---0----------- 0-----0--0-----|
--------------- 3---3---------- --2------------ ---------------|
--0------------ --------------- 3-------------- ---------------|

Em              C               Em              C
--------------- --------------- --------------- ---------------|
-------0------- (1)------------ -------0------- ---------------|
------0-------- 0-------------- ------0-------- 0--------------|
-----2--------- 2-------------- -----2--------- 2--------------|
--------------- 3-------------- --------------- 3--------------|
--0------------ --------------- --0------------ ---------------|

Em              C               Em              C
--------------- --------------- --------------- ---------------|
-------0------- --------------- -------0------- ---------------|
------0-------- 0-------------- ------0-------- -0-------------|
-----2--------- 2-------------- -----2--------- -2-------------|
--------------- 3-------------- --------------- 3--------------|
--0------------ --------------- --0------------ ---------------|

Em              D (bass C)      D
--------------- --------------- 0---0---0---0--|
-------0------- -3------------- 3---3---3---3--|
------0-------- -2------------- 2---2---2---2--|
-----2--------- --------------- 0---0---0---0--|
--------------- 3-------------- ----x---x---x--|
--0------------ --------------- ---------------|

    I used to live...

Am7		Dsus2		Dsus2

0---0---0---0-- 0----0-3^0--0-- -----0-3^0--0---|
1---1---1---1-- 3--3--3---3--3- ---3--3---3--3--|
0---0---0---0-- 2---2------2--2 ----2------2--2-|
2---2---2---2-- 0-0------------ --0-------------|
0---0---0---0-- 0-------------- ----------------|
x---x---x---x-- x-------------- ----------------|

G		Dadd9		Em7
--------------- --------------- ------------------------------|
-----3--------- ----3---------- ----3--------------3----------|
--0---0---0---- --2--2---2----- --0--0----0-----0---0---------|
---0---0-0----- ---0--0-0------ ---2--2-2---2-2---2--2--------|
--------2------ -------0------- -------2-2-2-2-2-2------------|
3-------------- 2-------------- 0-----------------------------|

Am7		Dsus2

0---0---0---0-- 0----0--------------0-------------------------|
1---1---1---1-- 3--3--3----3-----3---3------------------------|
0---0---0---0-- 2---2--2-2---2-2---2--2-----------------------|
2---2---2---2-- 0-0-----0-0-0-0-0-0---------------------------|
0---0---0---0-- 0---------------------------------------------|
x---x---x---x-- x---------------------------------------------|

Am7		Dsus2
--------------- ---------------|
-----3--------- ---3-----3-----|
--0---0---0---- ----2---2-2----|
---0---0-0----- -----0-0-------|
--------2------ --0---0--------|
3-------------- 2--------------|

Buffalo Ghost...

Em              C               Em              C
--------------- --------------- --------------- ---------------|
0--0----------- 1-------------- -------0------- ---------------|
0--0----------- 0-------------- ------0-------- 0--------------|
2--2----------- 2-------------- -----2--------- 2--------------|
--------------- 3-------------- --------------- 3--------------|
0-------------- --------------- --0------------ ---------------|

Em              C               Em              C
--------------- --------------- --------------- ---------------|
-------0------- 1-------------- -------0------- ---------------|
------0-------- 0-------------- ------0-------- 0--------------|
-----2--------- 2-------------- -----2--------- 2--------------|
--------------- 3-------------- --------------- 3--------------|
--0------------ --------------- --0------------ ---------------|
Добавлено: 19.05.2012
Вам также может быть интересно:
Другие материалы по этой песне:
  • Аккорды и текст

Страница создана 19.05.2012
http://primanota.ru/edie-brickell-and-new-bohemians/buffalo-ghost-chords.htm
Привет, Гость.
Предлагаем пройти революционный курс по гитаре.
Подарок от PrimaNota.Ru, забирай!