PrimaNota.ru - самый крупный в мире бесплатный архив песенных текстов, аккордов, табулатур и нот


Edguy - Down To The Devil - текст песни, таба, бас-таба, видео

Регистрация Запомнить меня
Войти через:  Facebook Google Twitter Vk Yandex Mail.ru

Edguy - Down To The Devil - текст песни, таба, бас-таба, видео

Печатать
Просмотров: 223
Lead first time
1)--15-14------------14--15-14------------14--15-14------------15-17-14--|
2)---------15-12-15-------------15-12-15-------------15------------------|
3)---------------------------------------------------------14------------|
4)-----------------------------------------------------------------------|
5)-----------------------------------------------------------------------|
6)-----------------------------------------------------------------------|

 Second time
1)--15-14-----------14--15-14-----------14--15-14------------14----------|
2)--------15-12-15-------------15-12-15-----------15-----15-------15-----|
3)----------------------------------------------------14----------14-----|
4)-----------------------------------------------------------------------|
5)-----------------------------------------------------------------------|
6)-----------------------------------------------------------------------|


Intro rhytm guitar
1)---------------------------|
2)---------------------------|
3)--9--5--7--7--7--9--5--7---|
4)--9--5--7--5--7--9--5--7---|
5)--7--3--5-----5--7--3--5---|
6)---------------------------|


Verse
1)-----|
2)-----|
3)--9--|
4)--9--|
5)--7--|
6)-----|

1)---------------------------------5------------|
2)--------------------------8-7-5-----8-7-5-8---|
3)--5--7--4--5--------5--7----------------------|
4)--5--7--4--5--7--5--5--7----------------------|
5)--3--5--2--3--7--5--3--5----------------------|
6)--------------5--3----------------------------|

Chorus
1)----------------------------------|
2)----------------------------------|
3)--9--5-----7--4--5--7----9--5--7--|
4)--9--5--7--7--4--5--7----9--5--7--|
5)--7--3--7--5--2--3--5----7--3--5--|
6)--------5-------------------------|

1)---------------------------------l----------------------------------|
2)---------------------------------l----------------------------------|
3)---------------7-9--9-7-----7----l----------------------------------|
4)----------7-9------------9-------l-------10--10--9---9------10--10--|
5)--7-7-7-7------------------------l-------10--10--10--10-----10--10--|
6)---------------------------------l--8-8--8---8---8---8--8---8---8---|

Bridge
1)--------------------------------|
2)--------------------------------|
3)--9--7--7-----7--9--7--7--------|
4)--9--9--7--5--7--9--9--7--5--7--|
5)--7--7--7--5--5--7--7--7--5--7--|
6)-----------3--------------3--5--|

1)--17-16------------16--17-16------------16--17-16----------17-19-16--|
2)---------17-14-17-------------17-14-17------------17-----------------|
3)------------------------------------------------------16-------------|
4)---------------------------------------------------------------------|
5)---------------------------------------------------------------------|
6)---------------------------------------------------------------------|

1)--17-16-----------16--17-16------------16--17-16-------------16------|
2)--------17-14-17-------------17-14-17------------17------17------17--|
3)-----------------------------------------------------16----------16--|
4)---------------------------------------------------------------------|
5)---------------------------------------------------------------------|
6)---------------------------------------------------------------------|

1)----------------------------|
2)----------------------------|
3)--11--7--9--9--9--11--7--9--|
4)--11--7--9--7--9--11--7--9--|
5)--9---5--7-----7--8---5--7--|
6)----------------------------|

1)--------------------|
2)--------------------|
3)--6--6-----------6--|
4)--6--6--6--7--9--6--|
5)--4--4--6--7--9--4--|
6)--------4--5--7-----|

Solo rhythm 2
1)---------------------------------------------|
2)---------------------------------------------|
3)-----6--7-----------6--4---------------------|
4)--4--6--7--7--6--4--6--4--6-----6-4-----4-6--|
5)--4--4--5--7--6--4--4--2--6----------6-------|
6)--2--------5--4--2--------4--4---------------|

1)-------------------------------------|
2)-------------------------------------|
3)--9--5-----7--4--5--7----9--5--7--9--|
4)--9--5--7--7--4--5--7----9--5--7--9--|
5)--7--3--7--5--2--3--5----7--3--5--7--|
6)--------5----------------------------|

1)-----------------------------|
2)-----------------------------|
3)--11--7-----7--6--7--9-------|
4)--11--7--7--7--6--7--9-------|
5)--9---5--7--5--4--5--7-------|
6)---------5-------------------|

Thanks, please rate it after you learn it.
Добавлено: 18.03.2012
Другие материалы по этой песне:

Страница создана 18.03.2012
http://primanota.ru/edguy/down-to-the-devil-chords.htm
Привет, Гость.
Предлагаем пройти революционный курс по гитаре.
Подарок от PrimaNota.Ru, забирай!