PrimaNota.ru - самый крупный в мире бесплатный архив песенных текстов, аккордов, табулатур и нот


Edgewater - Story Of - текст песни, таба, видео

Регистрация Запомнить меня
Войти через:  Facebook Google Twitter Vk Yandex Mail.ru

Edgewater - Story Of - текст песни, таба, видео

Печатать
Просмотров: 143
Tabbed by: Micah
Email: micahcreel@msn.com

Tuning: DADGBE
Opening Guitar part(play 16 times)

e|6------5------6-------5--5-------------------------------------------------|
B|--3-------------3-----------3----------------------------------------------|
G|----3-----3-------3------------3-------------------------------------------|
D|---------------------------------------------------------------------------|
A|---------------------------------------------------------------------------|
D|---------------------------------------------------------------------------|

opening guitar part harmony.  this part comes in after opening guitar part plays 2 
part is repeated 6 times.

e|-1-----------------1--------------1----------------------------------------|
B|----3------1----------3-------1------3-------------------------------------|
G|-------3-------3----------3-------------3----------------------------------|
D|---------------------------------------------------------------------------|
A|---------------------------------------------------------------------------|
E|---------------------------------------------------------------------------|
verse guitar part(loop 3 times)  this part takes over the harmony part


e|-----------------------------------------------------------------------------|
B|-----------------------------------------------------------------------------|
G|-----------------------------------------------------------------------------|
D|-----8---------7\-----3----------10-10------8-----7\----3--------------------|
A|--------5----------------1-------------0------5-----------1----8--8----------|
E|0-5--------0------1--------/8------------5------0-----1-----/8---------------|

chorus

e|---------------------------------------------------------------------------------|
B|---------------------------------------------------------------------------------|
G|---------------------------------------------------------------------------------|
D|-5--5--0--0----1--1--1/--10--10-----10--10---------------------------------------|
A|-5--5--0--0----1--1--1/---8---8------8---8---------------------------------------|
E|-5--5--0--0----1--1--1/---8---8------8---8---------------------------------------|

bridge

e|----------------------------------------------------------------------|
B|----------------------------------------------------------------------|
G|----------------------------------------------------------------------|
D|-15--15--15-----12--12-12-12-12----15--15--15-----12--12-12-12-12-12--|
A|-13--13--13--0--10--10-10-10-10----13--13--13--0--10--10-10-10-10-10--|
E|-13--13--13--0--10--10-10-10-10----13--13--13--0--10--10-10-10-10-10--|

bridge continued

e|-----------------------------------------------------------------------------|
B|-----------------------------------------------------------------------------|
G|-----------------------------------------------------------------------------|
D|-5-5--8--8--8-8-8-8/-10-----repeat bridge part 2 times and end on---3---3----|
A|-5-5-----6--6-6-6-6/-10---------------------------------------------1-0-1----|
E|-5-5-----6--6-6-6-6/-8----------------------------------------------1-0-1----|


| /  slide up
| \  slide down
| h  hammer-on
| p  pull-off
| ~  vibrato
| +  harmonic
| x  Mute note
===============================================================================
Добавлено: 25.07.2012
Другие материалы по этой песне:
  • Аккорды и текст

Страница создана 15.07.2012
http://primanota.ru/edgewater/story-of-chords.htm
Привет, Гость.
Предлагаем пройти революционный курс по гитаре.
Подарок от PrimaNota.Ru, забирай!