PrimaNota.ru - самый крупный в мире бесплатный архив песенных текстов, аккордов, табулатур и нот


Edge - Kasailai Pani Ma - таба, видео

Регистрация Запомнить меня
Войти через:  Facebook Google Twitter Vk Yandex Mail.ru

Edge - Kasailai Pani Ma - таба, видео

Печатать
Просмотров: 184
Our LEad Guitarist tabbed out this in 10minutes
                G
E||-----------------------|--------------------------------|
B||-----------------------|--8----10--8--10br--10-8-10--8--|
G||-------------------7-9-|--------------------------------|
D||-----------------------|--------------------------------|
A||-----------------------|--------------------------------|
E||-----------------------|--------------------------------|


       |--3-| |--3-| |--3--|  |--3-|  |--3-|                                  
                                     Em
--------------7-8-10-8-10-12-12-10-8------------|----------------------------|
--L----7-8-10------------------------12-10-8-7--|----------------------------|
------------------------------------------------|--9------9pbr----9pbr----7--|
------------------------------------------------|----------------------------|
------------------------------------------------|----------------------------|
------------------------------------------------|----------------------------|


                C
-------------------|---------------------------|-----------------------------|
-------------------|--15b------------15br--12--|--15b--------15br----15--13--|
-------------------|---------------------------|-----------------------------|
--9----------------|---------------------------|-----------------------------|
-------------------|---------------------------|-----------------------------|
-------------------|---------------------------|-----------------------------|


  D
--------------------|-----------------------------------12-------12-14-|
--15----------------|--------12-13----12-13-15-12-13-15----13-15-------|
--------------------|--12-14-------14----------------------------------|
--------------------|--------------------------------------------------|
--------------------|--------------------------------------------------|
--------------------|--------------------------------------------------|


                   |--3--|  |-3-|  |--|                             
 G   
--19------19br----------15-19--15--------|--17------17br-----------|
---------------------17-----------17-----|-------------------------|
------------------16-----------------16--|-------------------------|
-----------------------------------------|-------------------------|
-----------------------------------------|-------------------------|
-----------------------------------------|-------------------------|


  Em   
----------------------------15---|--L-------------------------|
-----12-13-12-12-15b-------------|-------15b--15-13-15--------|
--14-----------------------------|----------------------------|
---------------------------------|----------------------------|
---------------------------------|----------------------------|
---------------------------------|----------------------------|


  C
--15-12----12-15-12----12-15-12----12-15-12----12-|
--------13----------13----------13----------13----|
--------------------------------------------------|
--------------------------------------------------|
--------------------------------------------------|
--------------------------------------------------|


C
--15-12----12-15-12----12-15-12----12-15-12----12-|
--------13----------13----------13----------13----|
--------------------------------------------------|
--------------------------------------------------|
--------------------------------------------------|
--------------------------------------------------|


  D
--17-14----14-17-14----14-17-14----14-17-14----14-|
--------15----------15----------15----------15----|
--------------------------------------------------|
--------------------------------------------------|
--------------------------------------------------|
--------------------------------------------------|


   D    
--17-14----14-22br----22--------||
--------15----------------------||
--------------------------------||
--------------------------------||
--------------------------------||
--------------------------------||
Добавлено: 01.07.2012
Другие материалы по этой песне:
  • Аккорды и текст

Страница создана 01.07.2012
http://primanota.ru/edge/kasailai-pani-ma-chords.htm
Привет, Гость.
Предлагаем пройти революционный курс по гитаре.
Подарок от PrimaNota.Ru, забирай!