PrimaNota.ru - самый крупный в мире бесплатный архив песенных текстов, аккордов, табулатур и нот


Edge Of Sanity - The Spectral Sorrows - таба, видео

Регистрация Запомнить меня
Войти через:  Facebook Google Twitter Vk Yandex Mail.ru

Edge Of Sanity - The Spectral Sorrows - таба, видео

Печатать
Просмотров: 125
Subject: The spectral sorrows.
         By Edge of Sanity.
         From the "The spectral sorrows" CD.
Tunning: Tune down 2.5 steps: B, E, A, D, F#, B.

-------------------------------------------------------------------------------

Part 1. Play 4X.
|-------------------------------------|
|-------------------------------------|
|--------------------------11---12----|
|-------------------9-----------------|
|-------------------------------------|
|---0---------------------------------|

Part 2. Play 2x.
gtr.1 
|-------------------------------------|---------------------------------------|
|-------------------------------------|---------------------------------------|
|-------------------------------------|---------------------------------------|
|-------------------------------------|---------------------------------------|
|-------------------------------------|---------------------------------------|
|--0----------------------------------|--0------------------------------------|

gtr.2
|-------------------------------------|---------------------------------------|
|-------------------------------------|---------------------------------------|
|--9--8-------------------------------|--9--8---------------------------------|
|--------10--9------------------------|--------10--9--------------------------|
|---------------7--8--10--8--7--------|---------------7--8--10--8--7----------|
|-------------------------------------|---------------------------------------|

gtr.1
|-------------------------------------|---------------------------------------|
|-------------------------------------|---------------------------------------|
|-------------------------------------|---------------------------------------|
|-------------------------------------|---------------------------------------|
|-------------------------------------|---------------------------------------|
|--2----------------------------------|--2------------------------------------|

gtr.2
|-------------------------------------|---------------------------------------|
|-------------------------------------|---------------------------------------|
|--11-10------------------------------|--11-10--------------------------------|
|--------12-11------------------------|--------12-11--------------------------|
|---------------9--10-12-10--9--------|---------------9--10-12-10--9----------|
|-------------------------------------|---------------------------------------|

Part 3. (gtr.2 plays part 2 1x).
gtr.1
|-----------------|-------------------|-------------------|-------------------|
|-----------------|-------------------|-------------------|-------------------|
|-----------------|-------------------|-------------------|-------------------|
|--2--------------|--2----------------|--4----------------|--4----------------|
|--2--------------|--2----------------|--4----------------|--4----------------|
|--0--------------|--0----------------|--2----------------|--2----------------|

The CD directly continues with the next song "Darkday".

Salute to all (Death) Metal fans out there!!!
Any comments, E-mail me: J.B.van.Es@caiw.nl
Добавлено: 20.07.2012
Другие материалы по этой песне:
  • Аккорды и текст

Страница создана 20.07.2012
http://primanota.ru/edge-of-sanity/the-spectral-sorrows-chords.htm
Привет, Гость.
Предлагаем пройти революционный курс по гитаре.
Подарок от PrimaNota.Ru, забирай!