PrimaNota.ru - самый крупный в мире бесплатный архив песенных текстов, аккордов, табулатур и нот


Edgar Oceransky - Estoy Aqui - таба, видео

Регистрация Запомнить меня
Войти через:  Facebook Google Twitter Vk Yandex Mail.ru

Edgar Oceransky - Estoy Aqui - таба, видео

Печатать
Просмотров: 103
http://www.edgaroceransky.com/

ESTA ES LA VERSION “EN DIRECTO DESDE EL OJALA”

SE TOCA CON CAPO EN EL SEGUNDO TRASTE (2nd fret)

Acordes:

   D     G     G*   A7   A7/A# Bm/7  Bm7/A   F#    A
e|-0-| |-0-| |-0-| |-0-| |-0-| |-0-| |-0-| |-2-| |-0-|
B|-3-| |-3-| |-3-| |-3-| |-3-| |-3-| |-3-| |-2-| |-2-|
G|-2-| |-0-| |-4-| |-0-| |-0-| |-2-| |-2-| |-3-| |-2-|
D|-0-| |-0-| |-0-| |-2-| |-2-| |-4-| |-4-| |-4-| |-2-|
A|---| |---| |---| |-0-| |-1-| |-2-| |-0-| |-4-| |-0-|
E|---| |-3-| |-4-| |---| |---| |---| |---| |-2-| |---|

  F#*   Em     C    D/B   D/A# Dmaj7
e|-2-| |-0-| |-0-| |-0-| |-0-| |-2-|
B|---| |-0-| |-1-| |-3-| |-3-| |-2-|
G|---| |-0-| |-2-| |-0-| |-0-| |-2-|
D|---| |-2-| |-0-| |-0-| |-0-| |-0-|
A|---| |-2-| |-3-| |-2-| |-1-| |---|
E|-2-| |-0-| |---| |---| |---| |---|

INTRO

    D                G                 D               G
        

e|-------2p0-------|-------2p0-------|-------0-------|---2-2-2p0-------|
B|-----3-----3---3-|-----3-----3---3-|-----3---3---3-|---3-3-3---3---3-|
G|---2---------2---|---0---------0---|---2-------2---|-------------0---|
D|-0---------------|-----------------|-0-------------|-----------------|
A|-----------------|-----------------|---------------|-----------------|
E|-----------------|-3---------------|---------------|-3---------------|





   D               A7      A7/A#       Bm7
   Iba cayendo la lluvia  en el     balcón,

e|-------0-------|---------|---------|-----------2-----|
B|-----3---3---3-|-------3-|-------3-|-------2h3---3---|
G|---2-------2---|-----0---|-----0---|-----2---------2-|
D|-0-------------|---2-----|---2-----|---4-------------|
A|---------------|-0-------|-1-------|-2---------------|
E|---------------|---------|---------|-----------------|

  Bm7/A          G               A7           D            Bm7
  Y tu…       fumando  un  cigarrillo en el sillón,     tu voz…
e|---------0---|---------0-----|---------O-|-------0-----|---------0---|
B|-------3---3-|-------3---3---|-------3---|-----3---3---|-------3---2-|
G|-----2-------|-----0-------0-|-----0-----|---2-------2-|-----2-------|
D|---4---------|---0-----------|---2-------|-0-----------|---4---------|
A|-0-----------|---------------|-0---------|-------------|-2-----------|
E|-------------|-3-------------|-----------|-------------|-------------|



    G               G*           F#
llamandome  al  balcon a ver llover.
e|---------0-----|---------0---|-----------2-----|-----------|
B|-------3---3---|-------3---3-|---------2---2---|-2-3-3s5-5-|
G|-----0-------0-|-----4-------|-------3-------3-|-----------|
D|---0-----------|---0---------|-----4-----------|-----------|
A|---------------|-------------|---4-------------|-0-2---4---|
E|-3-------------|-4-----------|-2---------------|-----------|

  D                    A7     A7/A#       Bm7
Iban mis manos de las cuerdas       al    papel,
e|-------0--------|-----------|----------|-----------2-----|
B|-----3---3---3--|--------3--|--------3-|-------2h3---3---|
G|---2-------2----|------0----|------0---|-----2---------2-|
D|-0--------------|----2------|----2-----|---4-------------|
A|----------------|--0--------|--1-------|-2---------------|
E|----------------|-----------|----------|-----------------|

    Bm7/A           G              A7         D            Bm7
  Tambien       tus ojos  de mi cara a la   pared,     sin fe…
e|---------0---|---------0-----|---------O-|-------0-----|---------0---|
B|-------3---3-|-------3---3---|-------3---|-----3---3---|-------3---2-|
G|-----2-------|-----0-------0-|-----0-----|---2-------2-|-----2-------|
D|---4---------|---0-----------|---2-------|-0-----------|---4---------|
A|-0-----------|---------------|-0---------|-------------|-2-----------|
E|-------------|-3-------------|-----------|-------------|-------------|

     G               A7           D              G
 sabiendo  que  ha acabado de llover…                 Estoy
e|---------0-----|---------O---|-------0-------|---------0---|
B|-------3---3---|-------3---3-|-----3---3---3-|-------3---3-|
G|-----0-------0-|-----0-------|---2-------2---|-----0-------|
D|---0-----------|---2---------|-0-------------|---0---------|
A|---------------|-0-----------|---------------|-------------|
E|-3-------------|-------------|---------------|-3-----------|

     D               A             G
  Aquí,         sin ti…         hundido  en  el  silencio     Estoy  sin

                                                (TOCA ESTOS BAJEOS RAPIDO)
e|-------2p0-------|-----------0---|---------0------|-------------------|
B|-----3-----3---3-|-------3s2---2-|-------3---3----|-------------3-----|
G|---2---------2---|-----2---------|-----0-------0--|------0----0-----0-|
D|-0---------------|---2-----------|---0------------|----2--------------|
A|-----------------|-0-------------|----------------|--0------2-----4---|
E|-----------------|---------------|-3--------------|-------------------|

   D                  A             G               A7       A7/A#
  ti,              aquí…        deseando   que   regreses       junto  a
e|-------2p0-------|-----------0---|---------0-----|---------|---------|
B|-----3-----3---3-|-------3s2---2-|-------3---3---|-------3-|-------3-|
G|---2---------2---|-----2---------|-----0-------0-|-----0---|-----0---|
D|-0---------------|---2-----------|---0-----------|---2-----|---2-----|
A|-----------------|-0-------------|---------------|-0-------|-1-------|
E|-----------------|---------------|-3-------------|---------|---------|

   Bm7                G              A7             D
   mi,              vayamos  al  balcón  a  ver  llover
e|-----------2-----|---------0-----|---------0---|-------0-------|
B|-------2h3---3---|-------3---3---|-------3---3-|-----3---3---3-|
G|-----2---------2-|-----0-------0-|-----0-------|---2-------2---|
D|---4-------------|---0-----------|---2---------|-0-------------|
A|-2---------------|---------------|-0-----------|---------------|
E|-----------------|-3-------------|-------------|---------------|

    G                  D
e|---2-2-2p0-------|-2-----3-----3s5-5------3p2p0-------|
B|---3-3-3---3---3-|---3-----3---------5----------3---3-|
G|-------------0---|-----2-----2---------0----------2---|
D|-----------------|-0----------------------------------|
A|-----------------|-----------------0------------------|
E|-3---------------|------------------------------------|


 D                    A7         A7/A#       Bm7
Siempre juraste que un dia no ibas     a volver,
e|--------0--------|-----------|----------|-----------2-----|
B|------3---3---3--|--------3--|--------3-|-------2h3---3---|
G|----2-------2----|------0----|------0---|-----2---------2-|
D|--0--------------|----2------|----2-----|---4-------------|
A|-----------------|--0--------|--1-------|-2---------------|
E|-----------------|-----------|----------|-----------------|


  Bm7/A          G               A7            D          Bm7
  porque…     ya juntos no habia nada mas que hacer…    despues
e|---------0---|---------0-----|---------O-|-------0-----|---------0---|
B|-------3---3-|-------3---3---|-------3---|-----3---3---|-------3---2-|
G|-----2-------|-----0-------0-|-----0-----|---2-------2-|-----2-------|
D|---4---------|---0-----------|---2-------|-0-----------|---4---------|
A|-0-----------|---------------|-0---------|-------------|-2-----------|
E|-------------|-3-------------|-----------|-------------|-------------|

    G              G*            F#
  Jalabas con el auto hasta las seis
e|---------0-----|---------0---|-----------2-----|-----------|
B|-------3---3---|-------3---3-|---------2---2---|-2-3-3s5-5-|
G|-----0-------0-|-----4-------|-------3-------3-|-----------|
D|---0-----------|---0---------|-----4-----------|-----------|
A|---------------|-------------|---4-------------|-0-2---4---|
E|-3-------------|-4-----------|-2---------------|-----------|

  D                    A7        A7/A#       Bm7
   Sigue cayendo la lluvia en el         balcón,
e|-------0--------|-----------|----------|-----------2-----|
B|-----3---3---3--|--------3--|--------3-|-------2h3---3---|
G|---2-------2----|------0----|------0---|-----2---------2-|
D|-0--------------|----2------|----2-----|---4-------------|
A|----------------|--0--------|--1-------|-2---------------|
E|----------------|-----------|----------|-----------------|

    Bm7/A           G             A7            D            Bm7
   Y tu…       no estas con tu cigarro en el sillon        y yo
e|---------0---|---------0-----|---------O-|-------0-----|---------0---|
B|-------3---3-|-------3---3---|-------3---|-----3---3---|-------3---2-|
G|-----2-------|-----0-------0-|-----0-----|---2-------2-|-----2-------|
D|---4---------|---0-----------|---2-------|-0-----------|---4---------|
A|-0-----------|---------------|-0---------|-------------|-2-----------|
E|-------------|-3-------------|-----------|-------------|-------------|

   G          F#*    Em           A7
  Tratando de escribirte esta canción                 Estoy

(TOCA ESTOS BAJEOS RAPIDO)
e|----------3-2--|----------O----|-------------0-----|------------|
B|--------3------|--------0---0--|-------2s3s2---2---|---2-3-5----|
G|------0--------|------0--------|-----0-----------0-|------------|
D|----0----------|----2----------|---2---------------|------------|
A|---------------|---------------|-0-----------------|-0-0-2-4----|
E|--3---------2--|--0------------|-------------------|------------|

     D               A             G
  Aquí,         sin ti…         hundido  en  el  silencio     Estoy  sin

                                                (TOCA ESTOS BAJEOS RAPIDO)
e|-------2p0-------|-----------0---|---------0------|-------------------|
B|-----3-----3---3-|-------3s2---2-|-------3---3----|-------------3-----|
G|---2---------2---|-----2---------|-----0-------0--|------0----0-----0-|
D|-0---------------|---2-----------|---0------------|----2--------------|
A|-----------------|-0-------------|----------------|--0------2-----4---|
E|-----------------|---------------|-3--------------|-------------------|


   D                  A             G               A7       A7/A#
  ti,              aquí…        deseando   que   regreses       junto  a
e|-------2p0-------|-----------0---|---------0-----|---------|---------|
B|-----3-----3---3-|-------3s2---2-|-------3---3---|-------3-|-------3-|
G|---2---------2---|-----2---------|-----0-------0-|-----0---|-----0---|
D|-0---------------|---2-----------|---0-----------|---2-----|---2-----|
A|-----------------|-0-------------|---------------|-0-------|-1-------|
E|-----------------|---------------|-3-------------|---------|---------|

   Bm7              G         F#*  Em           D
   mi,            vayamos  al  balcón  a  ver  llover          Estoy
                     (TOCA ESTOS BAJEOS RAPIDO)
e|-------------2-------|-----------3-2---|-----------0----|-----------|
B|---------2h3---3-----|---------3-------|---------0---0--|----2-3-5--|
G|-------2---------2---|-------0---------|-------0--------|-----------|
D|-----4---------------|-----0-----------|-----2----------|-----------|
A|---2-----------------|-----------------|----------------|--0-0-2-4--|
E|---------------------|---3---------2---|---0------------|-----------|


     D               A             G
  Aquí,         sin ti…         hundido  en  el  silencio     Estoy  sin

                                                (TOCA ESTOS BAJEOS RAPIDO)
e|-------2p0-------|-----------0---|---------0------|-------------------|
B|-----3-----3---3-|-------3s2---2-|-------3---3----|-------------3-----|
G|---2---------2---|-----2---------|-----0-------0--|------0----0-----0-|
D|-0---------------|---2-----------|---0------------|----2--------------|
A|-----------------|-0-------------|----------------|--0------2-----4---|
E|-----------------|---------------|-3--------------|-------------------|

   D                  A             G               A7       A7/A#
  ti,              aquí…        deseando   que   regreses       junto  a
e|-------2p0-------|-----------0---|---------0-----|---------|---------|
B|-----3-----3---3-|-------3s2---2-|-------3---3---|-------3-|-------3-|
G|---2---------2---|-----2---------|-----0-------0-|-----0---|-----0---|
D|-0---------------|---2-----------|---0-----------|---2-----|---2-----|
A|-----------------|-0-------------|---------------|-0-------|-1-------|
E|-----------------|---------------|-3-------------|---------|---------|

   Bm7                G              A7             C
   mi,              vayamos  al  balcón  a  ver  llover
e|-----------2-----|---------0-----|---------0---|---------0-----|
B|-------2h3---3---|-------3---3---|-------3---3-|-------1---0---|
G|-----2---------2-|-----0-------0-|-----0-------|-----0-------0-|
D|---4-------------|---0-----------|---2---------|---2-----------|
A|-2---------------|---------------|-0-----------|-3-------------|
E|-----------------|-3-------------|-------------|---------------|



     D/B             D/A#          A7                Dmaj7
e|---------0-----|---------0-----|-----------0-----|--2--|
B|-------3---3---|-------3---3---|-------2s3---3---|--2--|
G|-----0-------0-|-----0-------0-|-----0---------0-|--2--|
D|---0-----------|---0-----------|---2-------------|--0--|
A|-2-------------|-1-------------|-0---------------|-----|
E|---------------|---------------|-----------------|-----|
Добавлено: 11.04.2012
Другие материалы по этой песне:
  • Аккорды и текст

Страница создана 11.04.2012
http://primanota.ru/edgar-oceransky/estoy-aqui-chords.htm
Привет, Гость.
Предлагаем пройти революционный курс по гитаре.
Подарок от PrimaNota.Ru, забирай!