PrimaNota.ru - самый крупный в мире бесплатный архив песенных текстов, аккордов, табулатур и нот


Edgar Lira - Es La Historia - таба, видео

Регистрация Запомнить меня
Войти через:  Facebook Google Twitter Vk Yandex Mail.ru

Edgar Lira - Es La Historia - таба, видео

Печатать
Просмотров: 119
Уроки эстрадного вокала в Санкт-Петербурге
Intro:
      Dm7                          C
E|-------------------------------------------|
A|-----------------------------3-------------|
D|0------------------------------2---------2-|   X2
G|--2-----2-----2-----------2------0-----0---|
b|----1-----1-----1-------1------------1-----|
e|------1-----0-----0h1-0------------0-------|


Estrofa I
       C           C6       C5         A7
E|----------------------------------------|
A|--------3-------3-2-------2-1--------0--|
D|---------2-----2---0-----0---0-------2--|
G|----------0---0-----0---0-----0---0--0--|
b|-----------1-1-------1-1-------1-1---2--|
e|------------0---------0---------0----0--|
En la historia de casi todos nosotros

          Dm7    F                        G
E|---------------1----------------------3--|
A|---------------3----------------------2--|
D|---------------3----------------------0--|
G|---------------2----------------------0--|
b|---------------1----------------------3--|
e|------1-1--0---1--------------1---1---3--|
nos cortaron las alas, mucho antes de volar

       C           C6       C5         A7
E|----------------------------------------|
A|--------3-------3-2-------2-1--------0--|
D|---------2-----2---0-----0---0-------2--|
G|----------0---0-----0---0-----0---0--0--|
b|-----------1-1-------1-1-------1-1---2--|
e|------------0---------0---------0----0--|
   Nos dijeron que somos los de abajo

             Dm7      F                   G         Dm7
      E|--------------1-------------------3--|-------------|
      A|--------------3-------------------2--|-------------|
      D|--------------3-------------------0--|---0--------0|
      G|--------------2-------------------0--|----2---2---2|
      b|--------------1-------------------3--|-----1---1—-1|
      e|------1-1--0--1-------------1-1---3--|------1---0-1|
que aunque miremos arriba nunca podremos llegar


Dm7           F
Que nadie te diga (que nadie te diga)

            C
que no llegaras (que no llegaras)

           Dm7        F       C
Son solo palabras que no pasaran

            Dm7
Si puedes creer (si puedes creer)
              F
Si puedes confiar (si puedes confiar)

            Dm7    F          C
No tardara mucho cuando lo veras


Estrofa II
       C           C6       C5         A7
E|----------------------------------------|
A|--------3-------3-2-------2-1--------0--|
D|---------2-----2---0-----0---0-------2--|
G|----------0---0-----0---0-----0---0--0--|
b|-----------1-1-------1-1-------1-1---2--|
e|------------0---------0---------0----0--|
En la historia de casi todos nosotros

          Dm7       F                       G
E|------------------1-----------------------3--|
A|------------------3-----------------------2--|
D|------------------3-----------------------0--|
G|------------------2-----------------------0--|
b|------------------1-----------------------3--|
e|---------1-1--0---1---------------1---1---3--|
los que nacieron abajo, abajo abajo se quedaran

       C           C6       C5         A7
E|----------------------------------------|
A|--------3-------3-2-------2-1--------0--|
D|---------2-----2---0-----0---0-------2--|
G|----------0---0-----0---0-----0---0--0--|
b|-----------1-1-------1-1-------1-1---2--|
e|------------0---------0---------0----0--|
  solo aquel que cree que hay un nuevo horizonte

             Dm7        F                    G         Dm7
      E|----------------1--------------------3--|-------------|
      A|----------------3--------------------2--|-------------|
      D|----------------3--------------------0--|---0--------0|
      G|----------------2--------------------0--|----2---2---2|
      b|----------------1--------------------3--|-----1---1—-1|
      e|------1-1--0----1------------1--1----3--|------1---0-1|
con mucho esfuerzo y paciencia al final llegara


                 F
 El sueño ya esta (el sueño ya esta)

            C
 Dentro de ti (dentro de ti)

           Dm7      F        C
 Con la promesa de que llegaras

                    Dm7
 Fuerte tienes que ser (fuerte tienes que ser)

           F
 Para resistir (para resistir)

                Dm7       F       C  C6   C5   A7   Dm7   C
 Pues no falta mucho cuando lo veraaaaaaas

 Puente:
      Dm7                          C
E|-------------------------------------------|
A|-----------------------------3-------------|
D|0------------------------------2---------2-|   X2
G|--2-----2-----2-----------2------0-----0---|
b|----1-----1-----1-------1------------1-----|
e|------1-----0-----0h1-0------------0-------|

E|------------------|
A|------------------|
D|0-----------------|
G|--2-----2-----2---|
b|----1-----1-----1-|
e|------1-----0-----|



 Dm7           F
Que nadie te diga (que nadie te diga)

            C
que no llegaras (que no llegaras)

           Dm7        F       C
Son solo palabras que no pasaran

            Dm7
Si puedes creer (si puedes creer)
              F
Si puedes confiar (si puedes confiar)

            Dm7    F          C  C6   C5   A7   Dm7   C
No tardara mucho cuando lo veraaaaaaas


       C           C6       C5         A7
E|----------------------------------------|
A|--------3-------3-2-------2-1--------0--|
D|---------2-----2---0-----0---0-------2--|
G|----------0---0-----0---0-----0---0--0--|
b|-----------1-1-------1-1-------1-1---2--|
e|------------0---------0---------0----0--|



http://www.edgarlira.com/home.htm
Добавлено: 18.05.2012
Другие материалы по этой песне:
  • Аккорды и текст

Страница создана 18.05.2012
http://primanota.ru/edgar-lira/es-la-historia-chords.htm
Привет, Гость.
Предлагаем пройти революционный курс по гитаре.
Подарок от PrimaNota.Ru, забирай!