PrimaNota.ru - самый крупный в мире бесплатный архив песенных текстов, аккордов, табулатур и нот


Edgar Cruz - Rock Medley - таба, видео

Регистрация Запомнить меня
Войти через:  Facebook Google Twitter Vk Yandex Mail.ru

Edgar Cruz - Rock Medley - таба, видео

Печатать
Просмотров: 216
This is Edgar Cruz's Rock Medley. All of these pieces are Edgars own arrangements.
I transcribed all of this by myself and took me in excess of 20 hours.
To learn this tab I recommend you watch the video at
http://www.youtube.com/watch?v=3avSlilOzAQ
Tuning low to high= EADGBE (Standard)
Please leave comments and/or corrections
Enjoy - Dan Benton-Smith - 23/09/2009

Stairway To Heaven

-------5-7-----7-8-----8-2-----2-0-------0-------0-----------------7-----7-------------|
-----5-----5---------5-------3-------1-----1---0-1---------------5-----5---------------|
---5---------5-----5-------2-------2---2-----2-0-2-------------5-----5-----------------|
-7-------6-------5-------4-------3---------------------------7-----6-------------------|
-----------------------------------------------2-0-0-7/8-7-0---------------------------|
---------------------------------------------------------------------------------------|

-------8-----8-------2-----2-------0-----0---------0-----------0-----------0-----------|
-----5---5---------3---3---------1---1-----1-----1---1---------1---------1-------------|
---5-------5-----2-------2-----2-------2-------2-------2---0h2-2-------0---------------|
-5-------------4-------------3---------------3-----------3-----------------------------|
-----------------------------------------------------------2---0-0-2-3-----------------|
---------------------------------------------------------------------------------------|

-2-----2-5---3-----0-----------0-------3-----3-3p2---2------0-----3/5-3-3-2h3p2--------|
-----3---------6----------1-3----1---1---0-----3---3-3----------1-------3--------------|
---2-------5-----5------2----------0-------0---2-----2--------0---------2--------------|
-0-------3-------------------------------------0-----0------------------0--------------|
----------------------0-----2--3------------------------0-2-3--------------------------|
---------------------------------------3-----------------------------------------------|

-0---5-----8-7-8-8-10--12-8-----------------3-5-5--------------------------------------|
---3-----5-----5-----------------10-8-7-5-3-----5--------------------------------------|
-------5-------5------------12-9----------------5--------------------------------------|
-0---7---------7-------10--------0----------3---3--------------------------------------|
---------------------------------------------------------------------------------------|
---------------------------------------------------------------------------------------|

Dust In The Wind

---------------------------------------------------------------------------------------|
-----1-------1-----0-------0-----3-------3-----1-------1-------0-------0---------------|
---------0-------0-----0-------0-----0-------0-----0-------0-------2-------2-----------|
-------2-------2-----2-------2-----2-------2-----2-------2-------2-------2-------------|
-0-2-3-----3-------3-----3-------3-----3-------3-----3---------0-----0-----------------|
---------------------------------------------------------------------------------------|

-----------------------------------------------------------------------0---------------|
-3-------3-----1-------1-----0---------0--1-------1-----3-------3--------------1-------|
-----2-------2-----2-------2-----2---2--------0-------0-----0-------0------2-----2---2-|
---2-------2-----2-------2-----2---2--------2-------2-----0-------0------2---------2---|
-0-----0-------0-----0-------0---------2--3-----3-------2-----2--------0-----0-------0-|
---------------------------------------------------------------------------------------|

-------3---3-3-3-3p1---0--------0-0----------------------------------------0-----------|
-----1---------------------3-3------------1---1-3-1--------1---3-------3---1-------1---|
---2-----0-----------2-----2-2------2---2---2---------0------0-----0-----------2-------|
-2---------------0-------0------------2-------------2----2-------0---0---0---2---------|
-----------------------------0----0-----------0-2-3------------2-----------0-----------|
-------3-----3-------------------------------------------------------------------------|

----------------3---3-3-3-3p1---0-------0-0--------------------------------------------|
-----1------------------------------3-3-----------1---1-----------------3---1---0------|
-2-------2---2----------0-----2-----2-----2---2--2--2-----------2-----2----------------|
---2---2---2------0-------0-------0-------------2-------2-----0-----------0------------|
-----0--------------------------------0-----0----------------0-------------------------|
----------------3-----3-------------------------------------2-----2-----3-----3--------|

--------------------------------------------0------------------------------------------|
---------1---1-----1---3---3---3--3---1---0-1-1---1--1-0-----------------1-0-----------|
---2---2---2-----2---2----------------------2--------------2--2----------------2-------|
-----2---------2---------0----------0-------2---------------------0---0----------------|
-0-----------0------------------------------0---0---------------0---0------------------|
-----------------------2-----2----3-----3------------3---3----2----------3---3---------|

-0------------------0--------------------------------------------------------------------|
-1-1-1---1--1-0-------3-3-3-3------------------------------------------------------------|
-2-2-2------------2-----------0---0------------------------------------------------------|
-2------------------------------2--------------------------------------------------------|
-0-----0---------------------------------------------------------------------------------|
------------3---3---2---2---3-----3------------------------------------------------------|

Suicide Is Painless

-----------------------------0--------------3-1---0-1---0---1---0---------------------|
-----1-3-------1-0-1-0-------1-3-----1-0-1----------------0-------3-------------------|
-2---2-4-------2-0-2-0---------4-----2-0-2------2-------------------------0-----------|
---2---------2-------------2--------2---------0-------------------------0-------------|
-0---------0-------------0---------0------------------3-------2-------2---------------|
---------0-------------0---------0----------------------------------3-----------------|

---0---0-----0--------------0---------------------------------------------7-----------|
---1-3-----3-----3-1----------3-1-3-----1-3-----1-0-----3---1-0-1-0-1-3-5-------------|
---0-----0----------------0-----2-----2-------0-------0-----------------7-7-----------|
---2----------------------------3---3---------------3-------2-0-2-------7-------------|
-3-----2-------0--------3---------------------------------3---------3-2-0-------------|
----------------------3-------1---1---------3-----3---------------3-------------------|

---12-12-12-12--3-5-3-5---3---5--3-----------3-5-3-5-3-5-3---------3-------5----------|
---10-10-10-10---------------------------3-----6-5-6-5-6-5-------5----5--8------------|
---12-12-12-12--4---4-----4---5--4-----4-----------------------5-----------5----------|
------------------0---------0--------5-----------------------7------------------------|
-0----------------------0----------5-----------3-----3-0-3----------------------------|
---------------------------------3---------3-------3------------------5---------------|

-8---10--8-5-3-5----------------------------------------------------------------------|
-----6---------------5-3-------1-0-1-0-------1-3--------------------------------------|
-----------5-4-------5-4-------2-0-2-0-------2-4--------------------------------------|
-0---0-------------2---------2-------------2------------------------------------------|
-----------------0---------0-------------0--------------------------------------------|
-----------3-------------0-------------0---------0------------------------------------|

Paint It Black

----------------------------------------------------------------------------------------|
-----------------------------------------0---1---3---1---0-------------------0----------|
-2---2---2---2-------2---2---2-------2-----------------------2---2---1---2-------2p1----|
---2---2---2---2---2---2---2---2---2---2---2---2---2---2---2---2---2---2---2---2-----2--|
-0---------------0---------------0---------------0--------------------------------------|
-----------------------------------------------------------------0---------------0------|

----------------------------------------------------------------0-0-0-0----------------|
------------------0---1---3---1h3p1-0h1p0---------------0-------0-0-0-0----------------|
--------------2---------------------------2-2---1---2-------2p1-1-1-1-1----------------|
---2---2----2---2---2---2---2-----------------2---2---2---2-----2-2-2-2----------------|
----------0---------------0-------------------------------------2-2-2-2----------------|
-0---0--------------------------------------0-------------------0-0-0-0----------------|

---5--3-3--------------0-0-0-----0-------------------5-3-3------------0-0--0-----0-----|
---5--3-3--1-1-3-3-3-3-1-1---3-1-1-----0-1-3-1-0-----5-0-0-1-1-3-3-3--0-0----3-1-------|
-5-5--4-4--2-----0---0-2-2-----------2-----------2---5-0-0-0---2-2-2--1-1--------------|
-7-7--5-5--2---------------------------------------2-2-0-0-2----------2----------------|
-7-7--5-5--0---2-------0-0-0---0---0---0-----------0-0-2-2-3----------2----------------|
-5-5--3-3----------------------------------0---0-------3-3-------2----0----0---0---0---|

-0-x-0-0-0-0-0------5---7---8---10---8---7---5---5---4---5---7---5---4-----------------|
-0-x-0-0-0-0-0------5---5---5---5----5---5---5---5---5---5---5---5---5---5---5---------|
-1-x-1-1-1-1-1----5---5---5---5----5---5---5---5---4---4---4---4---4---4---4---4-------|
-2-x-2-2-2-2-2-------------------------------------------------------------------------|
-2-x-2-2-2-2-2--0----------------------------------------------------------------------|
-0-x-0-0-0-0-0-----------------------------------0-------------------------------------|
                                                           E maj
-----5---7---8---8/10-8---7h8p7-5-5---4---5---7---5p4---4-4-x-4-4-4----5-3-3-----------|
-5---5---5---5---5----5---5-----5-5---5---5---5---5-----5-5-x-5-5-5----5-3-3-1-1-------|
---5---5---5---5---5----5-----------4---4---4---4-----4-4-4-x-4-4-4--5-5-4-4-2---------|
--------------------------------------------------------6-6-x-6-6-6--7-7-5-5-2---------|
-0------------------------------------------------------7-7-x-7-7-7--7-7-5-5-0---------|
----------------------------------0---0---0---0---0---------x--------5-5-3-3-----------|

---------0-0-0-----0-------------------5-3-3-----------0-0-0-----0--0-0-0-0-0-0--------|
-3-3-3-3-1-1---3-1-1-----0-1-3-1-0-----5-0-0-1-1-3-3-3-0-0---3-1----0-0-0-0-0-0--------|
---0---0-2-2-----------2-----------2---5-0-0-0---2-2-2-1-1----------1-1-1-1-1-1--------|
-------------------------------------2-2-0-0-2---------2------------2-2-2-2-2-2--------|
-2-------0-0-0---0---0---0-----------0-0-2-2-3---------2------------2-2-2-2-2-2--------|
-----------------------------0---0-------3-3-------2---0---0---0-0--0-0-0-0-0-0--------|

Classical Gas

-----------------------------------------------------------------------------0---------|
-------0-------0-----------------0---------0---------------------0h1p0-1-----1---0-----|
-----2---2-----------0-----0-------2-0-2-----------2-------2-2-----------2-------------|
---2-------2-------0-----0-----2-----------------2-----0h2-----2-----------------------|
-0-----------0---------------------------------0-----0-------0---0---------0-----------|
-----------------3-----2-----0---0-------0---0---------------------------------0-------|

------------------------------------------------------------------0--------------------|
------------------3-1-0-1---3-1-------0-----0-1-----1-----3-------1-3-1-3---1-0--------|
-----0-----0------4-2-0-2---4-2-----2-----0-------2-----0------0--0---2----------------|
---0-----0-----2------------------2-------------------------------2-----------0--------|
--------------------------------0---------------0-----2------2----3---0----------------|
-3-----2-----0----0-------0-------------3---------------------------------0------------|

-1--------------------------------------0-----1------2-----3------4-0-5-0-7-0----------|
-1------------1-0-----0-1---1---1-3-------1-----1------3-----3-------------------------|
-2-02-2-0-----------0-----2-----------------0-----2------2-----4-----------------------|
-3--2-------2-------------------------0--------------0---------------------------------|
-3--------0--------------0----2-----2---3----------------------------------------------|
-1--0-------------3---------------------------1------------3------0---0---0------------|

-8-7-5---5---5-----5--------8-7-5---5-------5-------8-7-5---5-----8-5----------3-0-1---|
-------8---7---7-----7---5--------8---7-8---7-8---7-------8---7---7---8---7----3-1-1-3-|
-------5--------------------------5-----5-----------------5---7-7---------7----4-0-2-3-|
-----------0-----0-----0--------------0---0-----0-------------0---0-----0------5-2-3-3-|
-0-----0--------------------0-----0-----------------0-----0--------------------5-3-3-1-|
----------------------------------------------------------------------------0--3---1---|

---------------0---------0-------------------0-----------------------------------------|
---3---3---3---3-------3---3-------3-------3---3-------3-------------------------------|
---2---2---2---2-----2-------2---2-------2-------2---2---------------------------------|
-------------------3-----------3-------4-----------4-----------------------------------|
-0---0---0---0---0-------------------0-------------------------------------------------|
---------------------------------------------------------------------------------------|

Live And Let Die
                              Strum A major
                               Backwards
-5-------------4-2-----0-----------5-----------------------------4-2-----9--9--9-------|
-2-----2-5---7-------3---3-2-3-0-----2---------------2-5-----5-7-------3/10-10-10------|
-2---2-------------2-------1---1-------2-----2-----2-------6---------2-----------------|
-2-2-------6-----0---------2---3-0-------2-------2-------6---------0-------------------|
-0-------4---------------------------------0---0-------4-------------------------------|
---------------------------0---------------------------------------------------0-------|

-5-5-5-5--1-1-1-1--0------------------4-5---2-2-0---------7------4-5-7---0-0-2-3-------|
-7-7-7-7--3-3-3-3--2-----2/-5---5-7-----------3----10--7--7--10--5---------1-----------|
-----------------------2----------------------2----8------8------4---------0-----------|
---------------------2--------6-----6-----0---0----9-----------------------------------|
----------------0-----------4----------------------------------------------------------|
---------------------------------------------------7------7------0---7-0---------------|

---2p0--------0-2----2-0-------2-2-2--3----2-0-------0-2---2-0-------2-2-2-------------|
-------1-0----2-3--------0h1p0-2-2-2--2--------0h1p0-2-3-------0h1p0-2-2-2-------------|
-----------2--2-2--------------2------2--------------2-2-------------2-----------------|
-2------------2-4--------------1---------------------2-4-------------1-----------------|
--------------0----0-----------0------0--0-----------0---0-----------0-----------------|
---------------------------------------------------------------------------------------|

---5-7-8-------------------------5-7-8---------------------------5-7-8---15------------|
-------------5-7-8-------------------------5-7-8---------------------------------------|
-------------------------7-5-2---------------------7---5-------------------------------|
-------------------------7-5-2---------------------7---5-------------------------------|
-0-0-0-0-0-0-0-0-0-0-0-0-0-0-0-0-0-0-0-0-0-0-0-0-0-0-0-0-0-0-0-0-0-0-0-0-0-------------|
---------------------------------------------------------------------------------------|

-----------15----------5-7-8---15----------------------6---3-----------------2---0-----|
---5-7-8---------------------------7-8-----------------7---4-----------------3---2-----|
---------------7-5-----------------------7---5-----------------------------------------|
---------------7-5-----------------------7---5-----------------------------------------|
-0-0-0-0-0-0-0-0-0-0-0-0-0-0-0-0-0-0-0-0-0-0-0-0-0-0-0-0-0-0-0-0-0-0-0-0-0-0-0-0-0-----|
---------------------------------------------------------------------------------------|

-12----9-----------------2-----------12----16----18----14----16------12----16----18----|
-13----10----------------3-----------13----13----15----12----13--13--13----13----15----|
-----------------------------------------------------------------14--------------------|
---------------------------------------------------------------------------------------|
-0-0-0-0-0-0-0-0-0-0-0-0-0-0-0-0-0-0-0-0-0-0-0-0-0-0-0-0-0-0-0-0-0-0-0-0-0-0-0-0-0-----|
---------------------------------------------------------------------------------------|

-----7-----8-----10----------------7-----8-----10----12-x-12-12-12-12-12-12-12-12-12-12-|
-----4-----5-----7-----------------4-----5-----7-----12-x-12-12-12-12-12-12-12-12-12-12-|
-----4-----5-----7-----------------4-----5-----7-----12-x-12-12-12-12-12-12-12-12-12-12-|
-----4-----5-----7-----------------4-----5-----7-----9--x-9--9--9--9--9--9--9--9--9--9--|
-0-0-0-0-0-0-0-0-0-0-0-0-0-0-0-0-0-0-0-0-0-0-0-0-0-0-0--x-0-----0-----0-----0-----0-----|
--------------------------------------------------------x-------------------------------|

---5-----5-5-8-8---5---5----5---5------------------------------0-0-0----5-5-2-5-2------|
---7---7---7---7-----6-7----5-5-5-8-8-----5---3-2---0----------0-0-0----2-2-2-2-2------|
---7-------7---7-------7----6---6---6-6-----6-----------1---1--1-1-1--2-2-2-2-2-2------|
---7-------7---7-7-----5----7---7---7-------------2-----2---2----2----4---4-4---4------|
-5-----------5-5-------5------7-----5---7---7---2-----2-2---2-2--2----4---4-4---4------|
-----5-----------------5--5-------5-5---------0---------0-0-0----0----2---2-2---2------|

-10-10-10-10-10-10-15-15-15-15-15-15---------------------------------------------------|
-0--0--0--0--0--0--0--0--0--0--0--0--5-7-8-------5-7-8---------------5-7-8-----5-7-8---|
-0--0--0--0--0--0--0--0--0--0--0--0--2-4-5-------2-4-5-------7-5-----2-4-5-----2-4-5---|
-0--0--0--0--0--0--0--0--0--0--0--0--2-4-5-------2-4-5-------7-5-----2-4-5-----2-4-5---|
----x-----x-----x--------------------0-0-0-0-0-0-0-0-0-0-0-0-0-0-0-0-0-0-0-0-0-0-0-0---|
----3-----3-----3----------------------------------------------------------------------|

---------------------------------------------------------------------------------------|
---------------5-7-8-------5-7-8---------------5-7-8-----5-7-8-------------------------|
---7---5-5-5-5-2-4-5-------2-4-5-------7-5-----2-4-5-----2-4-5---7---5-5-5-5-----------|
---7---5-5-5-5-2-4-5-------2-4-5-------7-5-----2-4-5-----2-4-5---7---5-5-5-5-----------|
-0-0-0-0-0-0-0-0-0-0-0-0-0-0-0-0-0-0-0-0-0-0-0-0-0-0-0-0-0-0-0-0-0-0-0-0-0-0-----------|
---------------------------------------------------------------------------------------|

Wipe Out

---------------------------------------------------------------------------------------|
---------------------------------------------------------------3---3-------------------|
-2-2-----------2---2-----------2---2---2-------2---2-----------2---2---2---------------|
-2---------------------2-------2---2---2-------2---2-----------0-0-0-------------------|
-0-0-----------0-0-0-----------0-0-0-----------0-0-0---0-0-3-4-------3-0-0-3-4---------|
-----3-0-0-3-4-------3-0-0-3-4-------3-0-0-3-4-------3---------------------------------|

---------------------------------------------------------------------------------------|
-3---3---------------------------------------------------------------------------------|
-2---2-----------2---2---2-------2-------2-------------------------------2-------------|
-0-0-0-----------2---2---2-------2-------0-------2-2-2p0---0-0-0---------0-------------|
-------3-0-------0-0-0-----------0-0-0---0-0-3-4---------2-------5p3p0-3---0-----------|
-----------0-3-4-------3-0-0-3-4-------3-----------------------------------------------|

-----------2-2-2-------------5-x-x-5-x-x-10-x-x-5-x-x-12-x-x-10-x-x-5-x-x-5-x-x-5-x-0-0-|
-2-2-2-2-2-2-2-2-0-0-0-0-0-0-5-x-x-5-x-x-10-x-x-5-x-x-12-x-x-10-x-x-5-x-x-5-x-x-5-x-0-0-|
-2-2-2-2-2-2-2-2-1-1-1-1-1-1-6-x-x-6-x-x-10-x-x-6-x-x-12-x-x-10-x-x-6-x-x-6-x-x-6-x-1-1-|
-2-2-2-2-2-2-2-2-2-2-2-2-2-2-7-x-x-7-x-x-0--x-x-7-x-x-9--x-x-0--x-x-7-x-x-7-x-x---x-2-2-|
-0-0-0-0-0-0-0-0-2-2-2-2-2-2-7-x-x-7-x-x----x-x-7-x-x-7--x-x----x-x-7-x-x-7-x-x---x-2-2-|
-----------------0-0-0-0-0-0-5-x-x-5-x-x----x-x-5-x-x----x-x----x-x-5-x-x-5-x-x---x-0-0-|

Dueling Banjos

-----------------------------------------------------------0---------------------------|
-------2-2-2-2-2---2---2---2---2---2-----------------0-2-3---2v------------------------|
-------2-2-2-2-2---2---2---2---2---2---------------2--------------------------0--------|
-------------------------------------------0-2-0----------------------0-2-0------------|
-------------0-------0-------0-------0-2-4-------4-0-------0----0-2-4-------4----------|
-2-4-0---0-------0-------0-------0---------------------0-------------------------------|

---------0-------------------------0-2-3-5-3-2/5-------------------------0-------------|
---0-2-3---3-2/9-----------------3---------------------------------0-2-3---3-2---------|
-2---------------------0-2-0-----------------------------------0-2---------------------|
-----------------0-2-4-------4-2-0-------0-------------0-2-0---------------------------|
-0-------0---------------------------0-----------0-2-4-------4-2-0-------0---0---------|
-----0-------0-------------------------------------------------------0---------0-------|

-----------------0-2-4-5-7-5-4------0---0----------------0---0----------------0--------|
--------------------------------2-2-2-2-2--2-2-2-3-2-2-2-2-2-2--2-2-2-3-2-2h3---2-3-0--|
--------------------------------2-2-2-2-2------------2-2-2-2-2-------------------------|
--------------------------------2-2-2-4-2------------2-2-2-4-2-------------------------|
-------0-2-0--------------------0-0-0-0-0------------0-0-0-0-0------------0------------|
-0-2-4-------4-2-0---0---0---0---------------------------------------------------------|

------------0-----------------------------------------------0-3---2-2-2-2--------------|
-2---0--2h3---2-3-0-2---0-------2-0-2---2-0-----2-0-2---2-3---3---3-3-3-3--------------|
---2------------------2-------2-------2-------2-------2---------2---2-2-2--------------|
--------------------------------------------0-----------------0-----0-0-0--------------|
--------------------------0h2-0-------0---------------0-0-0-0--------------------------|
----------------------------------0---------------0------------------------------------|

-0-0---0---0-0--0-0-0-0---0-0--0-0-0-0-0-0--3-2---2---2-2-0-0---0---0-0----------------|
-2-2---2---2-2--0-0-0-0---0-0--2-2-2-2-2-2--3-3---3---3-3-2-2---2---2-2----------------|
-------------------------------2-2-2-2-2-2---------------------------------------------|
------------------------2------2-2-2-2-2-2--0-------0----------------------------------|
-0-------0----------2----------0-0-0-0-0-0------0-------0-0-------0--------------------|
-----0-------0--0-----------0---------------------------------0-------0----------------|

-0-0-0-0---0-0-0-0---0---0-0--2-2-2-2-2-2-2-2-0-0-0-0-0-0-0-0-0-0-0-0-0-0-0-0----------|
-0-0-0-0---0-0-2-2---2---2-2--3-3-3-3-3-3-3-3-2-2-2-2-2-2-2-2-0-0-0-0-0-0-0-0----------|
---------------------------------------------------------------------------------------|
---------2--------------------0-------0-------------------------------2----------------|
-----2---------0-------0----------0-------0---0-------0-----------2-------2------------|
-0-----------0-----0-------0----------------------0-------0---0------------------------|

-0-0-0-0-0-0-0-0-2-2-2-2-2-2-2-2-0-0-0-0-0-0-0-0-0-0-0-0-0-0h2-2-4-5-0-5-0-7-2-7-2-----|
-2-2-2-2-2-2-2-2-3-3-3-3-3-3-3-3-2-2-2-2-2-2-2-2-0-0-0-0-0-0-------2-0-5-0-7-2-7-2-----|
-------------------------------------------------------------------2-1-6-1-8-3-8-3-----|
-----------------0-------0-----------------------------------------2-2-7-2-9-4-9-4-----|
-0-------0-----------0-------0---0-------0-----------2-------------0-2-7-2-9-4-9-4-----|
-----0-------0-----------------------0-------0---0-------0-----0-----0-5-0-7-2-7-2-----|

Hotel California
                   rasguedo                   rasguedo
---2-2-2-0---0-2-x-2-x-2-2-x-0-x-0-0-0-0-x-0-----0-x-0-0-2-------0-2-2-2-2---0-0-0---------|
---3-3-3---3-3-3-x-3-x-2-2-x-2-x-2-2-2-2-x-2---2-2-x-2-0-2-------0-0---------------3-0-----|
---4-4-4-----4-4-x-4-x-3-3-x-3-x-3-3-3-3-x-3-0-2-2-x-2-0-2-2-2-2-0-1-------------------1---|
---4-4-4-------4-x-4-x-4---x---x---2-----x---0-2-2-x-----2-2-2-2---2-----------------------|
-2-2-2-2---------x---x-4---x---x---4-----x-----0-0-x-----0-0-0-0---2-----------------------|
-2---------------x---x-2---x---x---2-----x---------x---------------0-------0-----0-------0-|

----------2---0-----0---------2-2-2-2h3p2---0h2-2-x-2-2-0---0---0-0-0-0-0-0---0------------|
--------3-----0-0-3-----3---3-3-----3-----3-----3-x-3-3-0---0---------------3--------------|
---0-0--------0-0-------0-----------------------2-x-2-2-0---0------------------------------|
-2----------------------------0-----0-----------0-x-0-----2-2------------------------------|
--------------------------------------------------x-------2--------------------------------|
-----0------3-----3---3---3-3---------------------x-------0---0-------0-------0------------|

-----2-2-2-4/6-2-2---2-3-3-3-3-x-3-x-3-3-3-3h5-3-3-2/-----5---7-5-2-2-2-2-0-0-------0------|
-----2-2-2-------2-5---3-3-3-3-x-3-x-3-3-3-3---3-3------7---7-8-7-3---------------0--------|
-----3-3-3-------3-----4-4-4-4-x-4-x-4-4-4-4-----2----7------------------------------------|
-----4-4-4-------4-----5-5-5-5-x---x---5-5-5-----0----0-------0---0-------------0----------|
-----4-4-4-------4-----5-5-5-5-x---x---5-5-5-----------------------------------------------|
-0-2-2-2-2-------2-----3-3-3-3-x---x---3-3-3----------------------------0-----2------------|

-------0-----0-0-0-----------------------------3-3-3-3-x-3-x-3-3-3-3h5p3-3-2-2-------------|
-----0-----0-0-0---3-3---3-3-3---3-3-3-3-3-3-0-3-3-3-3-x-3-x-3-3-3-3-----3-----------------|
---------------------------------------------0-4-4-4-4-x-4-x-4-4-4-4-----2-----------------|
---0---------------------------0-------2---4-0-5-5-5-5-x-5-x-5-5-5-5-----0-----------------|
---------0-------2-----4-----------------------5-5-5-5-x-5-x-5-5-5-5-----------------------|
-3---------------------------------------------3-3-3-3-x-3-x-3-3-3-3-----------------------|

-----5---7-5-2-2-2-2-0-0-------0-------0---3-3-3-2-2-2-x-2-x-2-x-2-2-2-2-2-2---2-----------|
---7---7-8-7-3---------------0-------0---------------2-x-2-x-2-x-2-2-2-2-3-3-2-3-----------|
-7---------------------------------------------------3-x-3-x-3-x-3-3-3-3-4-4-2-4-----------|
-0-------0---0-------------0-------0-----------------4-x-4-x-4-x-4-4-4-4-4-4-2-4-----------|
-----------------------------------------------------4-x-4-x-4-x-4-4-4-4-2-2---2-----------|
-------------------0-----2-------3-------0-----2-----2-x-2-x-2-x-2-2-2-2-------------------|

Ghost Riders In The Sky

----------------------------------------------------------------------0---0---0---0--------|
----------------------------------------------------------------------0---0---0---0--------|
----------------------------------------------------------------------0---0---0---0--------|
-4-4-4-4-4-4-4-4--2-2-2-2-2-2-2-2-----------------------------------------------2----------|
-2-2-2-2-2-2-2-2--0-0-0-0-0-0-0-0--5-5-5-5-5-5-5-5--4-4-4-4-4-4-4-4-----2------------------|
-----------------------------------3-3-3-3-3-3-3-3--2-2-2-2-2-2-2-2-0-------0--------------|

---0-----0---0-0-0-0-0-2-3-3-3-0-------------------3-------------0-0-0-2-3-3-3-5-7-7-7-----|
---0-----0---0-0-----------------3-3-3-0-3---------3---------3-0-0-------------------------|
---0-----0---0-0-------------------------------4---4-----4---------------------------------|
---------2---2-2-------------------------------5---5-----5---------------------------------|
-----0h2-2---2-2---------------------------3h5-5---5-3h5-5---------------------------------|
-0---------0-----0---0---0---0---3---3---3-----3-3-------3-3-----0---0---0---0---3---3-----|

-3-7----7-7/8-12-12--------------------------------0---0-0---0-----3-3-3-3---3---3---------|
---7----7-----------12-10-12-12p10p8-10-12-12p10p8-----0-0---1---0-1-1-1-1---1---1---------|
---8----8----------------------------------------------0-0---0-----0-0-0-0---0---0---------|
---9----9--------------------------------------------2-2-2---2-----2-2-2-2---2---2---------|
---9-------------------------------------------------2-----3-------3---x---3---------------|
---7--7---0------0-----0-----0-------0-----0---------0---------3-------3-------3-----------|

-3-3-3-0-0---0---------0-----0-0-0-0---3-3---3-3---3-3---0-0-0--------0-0-0-3p0------------|
-----0-----3-----------0-----0-0-0-0---3-3---3-3---3-3---1-1-1--------0-0-0-----3----------|
-----0-------------0---0-----0-0-0-0---4-4---4-4---4-4----------------0-0-0----------------|
-----2-------------2---2-----2-2-2-2-5-----5-----5-----5--------------2-2-2----------------|
-3-3-2---------0h2-2---2-0h2-2-2-2-2-5-----5-----5-----5-3---3----0h2-2--------------------|
-----0---0---0-----0-0---------0-0-0-3-----3-----3-----3--------0--------------------------|

-3p0-----3p0-------------3-3---3---3-3-----------0---0---0-----0---0-----------------------|
-----3-0-----------1-----------------------------0---0---0-----0---0-----------------------|
-------------0-------------------------------0---0---0---0-----0---0-----------------------|
---------------2p0---------------------------2---2---2---2-----2---2-----------------------|
-------------------3---3-3---3-----3-----0h2-2-----2-------0h2---2-------------------------|
-0-------0-----------3-----3-----3---3-0-----0-0-------0-------------0---------------------|

-----------------------------------0---0-----------------------------------0---------------|
-----------------------------------0---0-----------------------------------0---------------|
-------2p0---------0-2p0-0-------0-0---0-------2p0---------0-2p0-------0---0---------------|
-2h4-------0-0h2h4---------0h2h4---2-2---2h4-------0-0h2h4-------0h2h4---2-----------------|
-------------------------------------------------------------------------------------------|
-----0---------------------------------------0---------------------------------------------|

---------------0---------------------------------------------------------------------------|
-----1p0---0---0---1p0---0-------1p0---0---------0-1p0---0-------1p0---0-------------------|
-0h2-----2---0-2-2-----2---0-2-2-----2---0---0h2-------2---0-2-2-----2---0-2-2-------------|
-----------------------------------------2-------------------------------------------------|
-----0-----------------------------------2-------------------------------------------------|
-----------------------------------------0-0-----------------------------------------------|

-------0-------------------------------------------0---------------------------------------|
-0-0---0---0h5-8-7p0-3p0-5---8-7p0-3p0-5-8-7p0-3p0---------0h5-8-7p0-3p0-5-8-7p0-3p0-------|
-2-0---0---------------------------------------------2-2-----------------------------------|
-------2---------------------------------------------2-2-----------------------------------|
-------2---------------------------------------------2-2-----------------------------------|
-----0-0-0-------0-------0-----0-------0---0-------0-----0-------0-------0---0-------------|

-------------0-----7-----------7-----------7-----------0-----7-----------7-----------------|
-5-8-7p0-3p0---------8-7p0-3p0---8-7p0-3p0---8-7p0-3p0---------8-7p0-3p0---8-7p0-3p0-------|
---------------2-2---------------------------------------2-2-------------------------------|
---------------2-2---------------------------------------2-2-------------------------------|
---------------2-2---------------------------------------2-2-------------------------------|
-0---0-------0-----0---0-------0---0-------0---0-------0-----0---0-------0---0-------------|

-7----------------0---3-3-3-3-x4-3-0-0-0-----------0-----3p0-----3p0-------5p--------------|
---8-7p0-3p0--0-0-0---3-3-3-3----3-1-1-1-----------0---------3p0-----3p0------0----3p0-----|
------------------0---4-4-4-4----4-0-0-0-----------0---------------------------------------|
------------------2---5----------5---------------------------------------------------------|
--------------2---2---5----------5-3-3-3---0p2-2-----2/7-----------------------------------|
-0---0----------0-0-3-3----------3-------0-------0-------0-------0-------0-------0---------|

-------3-3---3---3-3-3--0-------0---0-----0---0-----0-7-7---7-8-8-8-8-x6-12-12-12----------|
-1---0-------1---1-1-1--0-------0---0-----0---0-----0-0-------0-0-0-0----------------------|
-----0------------------0-------0---0-----0---0-----0-0-------0-0-0-0----------------------|
------------------------2-------2---2-----2---2-----2---------------0----------------------|
-3-----3---3-------3-3------0h2-----2-0h2-----2-0h2-----------------x----------------------|
---3-----3-----3----------0-------0---------0---------0---0---------3----8---8--8----------|

-7-----7---7---7-7-----7---7---7-7-----7---7---7-7-----7---7---7---------3-----------------|
-0-----0---0---0-0-----0---0---0-0-----0---0---0-0-----0---0---0-1-------------------------|
-------0---0---0-------0---0---0-------0---0---0-------0---0---0---0---0---0---0-----------|
-------------------------------------------------------------------2---2---2---2-----------|
-----------------------------------------------------------------3-------3-----------------|
-0-5h7---7---7---0-5h7---7---7---0-5h7---7---7---0-5h7---7---7-------3-------3-------------|

---3---3---3---3-3-3-3-3-3-3--8-x16-----15-------------------------------3-----------------|
---1---1---1---1-----------0--0------------------------------------------3-----------------|
------------------------------0-----11-----4-----------------------------4-----------------|
------------------------------0-----12-----5-----------------------------5-----------------|
-3-------3-------3---2---0----x---------10-5-----------------------------5-----------------|
-----3-------3----------------3-----10-----3-tap nails on body of guitar-3-----------------|
Добавлено: 11.04.2012
Другие материалы по этой песне:
  • Аккорды и текст

Страница создана 11.04.2012
http://primanota.ru/edgar-cruz/rock-medley-chords.htm
Привет, Гость.
Предлагаем пройти революционный курс по гитаре.
Подарок от PrimaNota.Ru, забирай!