PrimaNota.ru - самый крупный в мире бесплатный архив песенных текстов, аккордов, табулатур и нот


Edgar Cruz - Killer Queen - таба, видео

Регистрация Запомнить меня
Войти через:  Facebook Google Twitter Vk Yandex Mail.ru

Edgar Cruz - Killer Queen - таба, видео

Печатать
Просмотров: 149
-------------------------------------------------------------------------------
			     KILLER QUEEN - Queen
			   Arrangement by Edgar Cruz
-------------------------------------------------------------------------------
Tabbed by: metallhead
Email: homesticky@gmail.com

Tuning: E A D G B E
                            

Words and Music by Freddie Mercury
Arranged by Edgar Cruz

Gtr I (E A D G B E) - 'Untitled'

  Q=120
 4/4
  Gtr I
                               |   |    |         |   |   |
  H    Q  Q    W               Q   Q    Q    Q    Q   Q   Q   E   E
|------x--x--|-x--x--x-------|-2---2----2----2--|-5---5---5---5-------|
|------------|---------------|-3---3----3----3--|-8-0-8---8-0-0-------|
|------------|-----------2-2-|-4-4-4-4-(4)------|-6---6-7-6---6p0-----|
|------------|---------4-----|-------------4----|-----------------4p0-|
|------------|---------------|------------------|---------------------|
|------------|---------------|------------------|---------------------|
               Q  Q  Q E Q E   Q E Q E +Q  E Q    Q E Q E Q E S S S S
                     |3| |3|   |3| |3|  |3-|      |3| |3| |3|


                                  |-3-|  |-3--|   |--3---| |-3-|  |3|
   Q   Q    Q    Q    Q    Q      E E E +Q    E   Q Q    Q E E E  Q E
|-^2---2----2----2--|-5----5--------------------|-2-2----2-------^5---|
|-^3---3----3----3--|-8----8----------7-(7)-----|-----^3---5-3-5-^5-5-|
|-^4-4-2-4-(4)------|-6-6-(6)-6-6-7h9---------2-|-----^2---------^2---|
|-^4-----------4-4--|-------------9---7-(7)-4p2-|-----^4---------^2---|
|-^2----------------|---------------------------|-5--------4----------|
|-------------------|---------------------------|---------------------|
   Q E Q E +Q  E Q    Q E +E  E E Q   E +E  E E   Q    Q   Q      Q
   |3| |3|  |3-|      |3|  |-3--| |-3-|  |-3--|


  |---3---| |-3-|  |3|   |-3-|  |3| |-3-|  |-3-|   |--3--|  |3|
  Q Q.    E E E E  Q E   E E E  Q E E E E  E E E   Q Q   Q  E Q +Q
|------^5---------^3---|-------^3---------^2-----|-----7---^5--------|
|-3-3--^3-3-0h3-0-^0-0-|---3---^3---------^3-----|-----8---^7-5-(5)--|
|------^5---------^0---|-3---3-^3-3-2---2-^2---2-|-----7---^6--------|
|------^4---2-----^0---|-------^0---------^4-----|-7-7---7-^5--------|
|-3--------------------|-1----------0------------|-0-------^0--------|
|----------------------|-------------------------|-------------------|
  Q     Q   Q      Q     Q      Q   Q      Q       Q   Q    H


 2/4          4/4
         PM--------------------------------------------| PM|
       |-3-|   |-3-|  |3-| |-3-|         |3|  |3-| |-3-| |3|
  +Q   E E E   E E E +Q  E E E E +Q      Q E +Q  E E E E Q E
|-(5)--------|-2-2-2-(2)---------------|-5-5-(5)-3-2p0--------|
|------------|-----------5-3p2---------|------2--------3------|
|------------|--------3--------4-(4)---|------2----------2----|
|------------|--------------------4----|---2-------0-------2--|
|-(0)--------|-----4-------2---------2-|-0--------------------|
|--------0-1-|-2-----------------------|----------------------|
  +Q   Q       Q   E  Q    Q      Q  E   Q E  Q    Q     Q
               |-3-|              |3-|   |3|


  |3| |-3-|    |3|                    |--3---| |-3-|
  Q E E E E Q  Q E   S E. Q  Q   Q    Q Q.   E E E E Q
|------------------|----------------|-5-5----5----------|
|------------------|---2------------|-2-2------5---5----|
|-2-1-------2--1-1-|-2-2-----6---9--|-2-2------6-6-6----|
|-3---4p2---4--2-2-|-2-2-----6--11--|------------6------|
|-4---4---4-4--2-2-|-4-------4--11--|----------4-----4--|
|-----------2--0---|-5----5--4---9--|-2----2------------|
  Q   Q     Q  Q     Q    Q  Q   Q    Q    Q   Q     Q
                                      |


  |-3-| |-3-| |-3-|      |-3-|  |3-| |3| |3|    |3-| |3-|  |-3-|
  E E E E E E E E E Q    E E E +Q  E Q E E Q   +Q  E Q  E +Q   E   +Q
|-5-5-5---5-5----------|-2h4-2-(2)-----------|-------5--9-(9)------------|
|-2-2-2---2-2-7-4-5----|-----------5-4-4-2-0-|-(0)-2-2--5-(5)------------|
|-2-2-2---2-2-5-5-6----|-3------4----6-------|-----2-2--6-(6)------------|
|-------------6-6-6----|-----------------4---|-----2----------<7>-(<7>)--|
|-------------------4--|-----------------2---|-(2)-0---------------------|
|-2-----2-----4--------|-2------4----6-------|---------------------------|
  Q     Q     Q     Q    Q      Q    Q   Q     +Q  E H.
  |                                             |3-|


  |-3-|  |3-| |-3-|         |3| |3| |-3-|        |3-|  |3-|
  E E E +Q  E E E E +Q      Q E Q E E E E Q      Q  E  Q  E +H
|-4-4-4-(4)---------------|-2-2-2-------------|--------5--9-(9)----|
|-----------7-5p4---------|-------5-4p2-------|--------2--5-(5)----|
|--------5--------6-(6)---|-----3-------4-----|-^4-^2--2--6-(6)----|
|--------------------6--4-|---------------4---|-^4-^2--------------|
|-----6-------4-----------|---4-----2-------2-|-^2-^0-(0)----------|
|-4-----------------------|-2-----------------|--------------------|
  Q   E  Q    Q      Q  E   Q E Q   Q     Q E    Q  E +H.
  |-3-|              |3-|   |3|           |3|    |3-|


        |3|      |3|    |3-|     |3|               |3|      |3|
    Q   Q E  Q   Q E   +Q  E Q   Q E  Q      +Q    Q E  Q   Q E
|-<12>--0------------|-------0--12-9------|--------0--------2-2-|
|-------0----2---7-7-|-(7)---0--10---<7>--|-(<7>)--0----2---3-3-|
|-------1----2---7-7-|-(7)---1---9---<7>--|-(<7>)--1----2---2-2-|
|---------2-(2)--7-7-|-(7)-2---------<7>--|-(<7>)----2-(2)------|
|--------------------|--------------------|-------------0-------|
|---0----------------|--0-----------------|---0-------------2---|
    W                   W                     H         Q   Q


   |3-| |3|      |3|   |  |   |           |   |   |
  +Q  E Q E  Q   Q E   Q  Q   Q    Q      Q   Q   Q   E   E
|-(2)---0------------|-2--2---2----2----|-5---5---5---5-------|
|-(3)---0----2-------|-3--3---3----3----|-8-0-8---8-0-0-------|
|-(2)---1----2-------|-4--4-2-4---------|-6---6-7-6---6p0-----|
|-----2---2-(2)--4-4-|----------4-(4)-4-|-----------------4p0-|
|--------------------|------------------|---------------------|
|--0-------------2---|------------------|---------------------|
   H.            Q     Q  Q E Q E +Q  E   Q E Q E Q E S S S S
                          |3| |3|  |3-|   |3| |3| |3|


                                  |-3-|           |--3---| |-3-|  |3|
   Q   Q    Q    Q    Q    Q      E E E +Q        Q Q    Q E E E  Q E
|-^2---2----2----2--|-5----5--------------------|-2-2----2-------^5---|
|-^3---3----3----3--|-8----8----------7-(7)-----|-----^3---5p3-5-^5-5-|
|-^4-4-2-4-(4)------|-6-6-(6)-6-6-7h9-----------|-----^2---------^2---|
|-^4-----------4-4--|-------------9---7-(7)-4p2-|-----^4---------^2---|
|-^2----------------|---------------------------|-5--------4----------|
|-------------------|---------------------------|---------------------|
   Q E Q E +Q  E Q    Q E +E  E E Q   E +E  E E   Q    Q   Q      Q
   |3| |3|  |3-|      |3|  |-3--| |-3-|  |-3--|


  |---3---| |-3-| |3|   |-3-|  |3| |-3-|  |-3-|   |--3---|  |3|
  Q Q.    E E E E Q E   E E E  Q E E E E  E E E   Q Q    Q  E Q +Q
|------^5---------3---|-------^3---------^2-----|-----^7---^5--------|
|-3-3--^3-3-0h3-0-0-0-|---3---^3---------^3-----|-----^8---^7-5-(5)--|
|------^5---------0---|-3---3-^3-3-2---2-^2---2-|-----^7---^6--------|
|------^4---2-----0---|-------^0----------4-----|-7-7----7-^5--------|
|-3-------------------|-1----------0------------|-0--------^0--------|
|---------------------|-------------------------|--------------------|
  Q     Q   Q     Q     Q      Q   Q      Q       Q    Q    H


 2/4        4/4
-------------PM------------------------------------------|
   |-3--|    |-3-|  |3-| |-3-|         |3|  |3-| |3|  |3-|
   Q  Q Q    E E E +Q  E E E E +Q      Q E +Q  E Q E +Q  E
|----------|-2-2-2-(2)---------------|---------------------|
|--7--7-7--|-----------5-3p2---------|-------------3-(3)---|
|----------|--------3--------4-(4)---|-2-2-(2)-0-----------|
|----------|--------------------4----|-----------4-------2-|
|-(0)------|-----4-------2---------2-|-0----0----5----5----|
|----------|-2-----------------------|---------------------|
  +H         Q   E  Q    Q      Q  E   Q    Q    Q    Q
   |         |-3-|              |3-|


  |3| |-3-|    |3|                    |--3---| |-3-|
  Q E E E E Q  Q E   S E. Q  Q   Q    Q Q.   E E E E Q
|------------------|----------------|-5-5----5----------|
|------------------|---2------------|-2-2----2-5---5----|
|-2-1-------2--1-1-|-2-2-----6---9--|-2-2----2-6-6-6----|
|-3---4-2---4--2-2-|-2-2-----6--11--|------------6------|
|-4---4---4-4--2-2-|-4-------4--11--|----------4-----4--|
|-----------2--0---|-5----5--4---9--|-2----2------------|
  Q   Q     Q  Q     Q    Q  Q   Q    Q    Q   Q     Q
                                      |


  |-3-| |-3-| |-3-|      |-3-|  |3-| |3| |3|    |3-| |3-|  |3-|
  E E E E E E E E E Q    E E E +Q  E Q E E Q   +Q  E Q  E +Q  E   +Q
|-5-5-5---5-5----------|-2h4-2-(2)-----------|-------5--9-(9)----------|
|-2-2-2---2-2-7-4-5----|-----------5-4-4-2-0-|-(0)-2-2--5-(5)-7b8-(7)--|
|-2-2-2---2-2-5-5-6----|-3------4----6-------|-----2-2--6-(6)----------|
|-------------6-6-6----|-----------------4---|-----2-------------------|
|-------------------4--|-----------------2---|-(2)-0-------------------|
|-2-----2-----4--------|-2------4----6-------|-------------------------|
  Q     Q     Q     Q    Q      Q    Q   Q     +Q  E H.
  |                                             |3-|


  |3|  |3-| |-3-|       |3|  |3| |-3-|           |3| |-3-|
  Q E +Q  E E E E  Q    Q E  Q E E E E Q    Q    Q E E E E  Q
|-4-4-(4)-------------|-4-5----4----------|--------2-------^2---|
|-----^4--7-5p4---^5--|-----^7---5p4---5--|-7\--^5---3p2---^3---|
|-----^5--------6-^6--|-----^5-------6-6--|-----^3---------^4---|
|-----^6----------^6--|-----^4---------6--|-----^4-------4-^4---|
|-----^6----4---------|----------4--------|-----^4---2----------|
|-4-------------------|-4-----------------|-2-------------------|
  Q    Q    Q      Q    Q    Q   Q     Q    Q    Q   Q      Q


  |-3-| |-3-|     |3-|        |3|       |3-|        |3|
  E E E E E E Q   Q  E   +Q   Q E +Q    Q  E   +Q   Q E +Q    Q
|-2--------------------|---------------------|--------------------|
|---3-5-2h3p2----------|------7-7-(7)--------|------7-7-(7)-------|
|-------------4--------|------7-7-(7)--------|------7-7-(7)-------|
|----------------^2-^2-|-(2)--7-7-(7)--^2-^2-|-(2)--7-7-(7)--^2/--|
|-------------2--^2-^2-|-(2)-----------^2-^2-|-(2)-----------^2/--|
|-2-----2--------^0-^0-|-(0)-----------^0-^0-|-(0)-----------^0/--|
  Q     Q     Q   Q  E   +H.            Q  E   +H.            Q
                  |3-|                  |3-|


        |-3-|                |3-|  |-3--|         |3-| |-3--|
  Q  Q  Q   E    +Q       Q  Q  E  E  E E +Q      Q  E E  E E   H
|----------------------|-^7--7-----------------|-12-12-9-10-9--------------|
|-7--8--9-<12>-(<12>)--|-^7----11-12S10-7-(7)--|--------------<12>---------|
|-7--8--9--------------|-^7--------------------|---------------------------|
|-7--8--9--------------|-^9--------------------|----------------------4p0--|
|----------------------|-^9--------------------|--0----0--------0---0------|
|-0-------<12>-(<12>)--|-^7--7-----7-------7---|---------------------------|
  H     Q   E    +Q       Q  Q     Q       Q      Q    Q        Q   E E E
        |-3-|                                                       |-3-|


      |3-|  |-3--|        |3| |-3-| |-3--| |--3--|    |---3---|  |---3---|
   Q  Q  E  E  E E +Q     Q E E E E E E  E E  E  E    Q  Q    Q  Q  Q    Q
|-^7--7-----------------|-9-9-6-7-6-9-7-10-9-12-10-|-14---------12---------|
|-^7----11-12-10-7-(7)--|--------------------------|----15---------14------|
|-^7--------------------|--------------------------|---------14---------14-|
|-^9--------------------|--------------------------|--0----0---------------|
|-^9--------------------|-0---0-----0------0-------|-------------0----0----|
|-^7--7-----7-------7---|--------------------------|-----------------------|
   Q  Q     Q       Q     Q   Q     Q      Q          Q    Q     Q    Q


        |3-|  |3-|  |3-|     |3-|  |3-|  |3-|  |3-|        |3-|
    Q   Q  E  Q  E  Q  E     Q  E  Q  E  Q  E  Q  E    Q   Q  E  +H
|-^10--12-14-10-14-12-10-|-----10-------------------|-14--14-12-(12)----|
|-^13--------12----------|-^11----13-11-10-10-10-10-|-------------------|
|-^11--12-14-12----------|-^12----------11-11-12-11-|-14--14-12-(12)----|
|-^-0---0----------------|-^12----------12-12-12-12-|-------------------|
|------------10----10----|-^10----10-----0-----0----|--0---0------0-----|
|------------------------|--------------------------|-------------------|
    Q   Q     Q     Q        Q     Q     Q     Q       Q   Q      H


                                            2/4
           PM
        |3-|  |3-|            |3-|                |-3-|
   +Q   Q  E  Q  E  Q     Q   Q  E  +H        Q   E E E
|-(12)----12S14-17-14--|-14--14-15-(15)----|------------|
|------------------10--|-10--12-14-(14)----|------------|
|-(12)-----------------|-------------------|------------|
|----------------------|-------------------|--------2-3-|
|--(0)--------0-----0--|--0---0------0-----|-(0)--------|
|----------------------|-------------------|------------|
   +H         Q     Q     Q   Q      H       +H


 4/4
      |3| |-3-|      |3|  |3| |-3-|      |3| |3| |-3-| |3|
  Q   Q E E E E Q    Q E  Q E E E E Q    Q E Q E E E E E Q
|----^2------------|-2-2-^2------------|-------------------|
|----^2-5-3p2---3--|-----^2-5-3p2---3--|-----------------3-|
|----^3-------4-4--|-----^3-------4-4--|-2-4-2-0-----------|
|-4--^4---------4--|-----^4---------4--|---------4p2-4-4---|
|---------2--------|----------2--------|-0---0---5-----5---|
|-2----------------|-2-----------------|-------------------|
  Q   Q   Q     Q    Q    Q   Q     Q    Q   Q   Q     Q


  |3| |3| |3|  |3-|   |3| |3|            |-3-|  |-3-| |-3-| |--3--|
  Q E Q E Q E +Q  E   Q E Q E  Q   Q     E E E  E E E E E E E E   E
|-------------------|-5-4---0-^5--^7--|-^9-9-9-^9-9-9-7--------------|
|-----------------7-|-6---7---^2--^5--|-^5-----^5-----5-3-0----------|
|-2-4-2-0---7-(7)---|-4-------^2--^4--|-^6-----^6-----------2-0------|
|---------4---------|---------^4--^6--|-^7-----^7--------------------|
|-0---0---5----5----|-4---4-----------|-^0-----^0--------------------|
|-------------------|---------^2--^0--|---------------0-----0---<12>-|
  Q   Q   Q    Q      Q   Q    Q   Q     Q      Q     Q     Q


                           2/4        4/4
   |-3-|  |-3-| |3| |3-|         |3|
   E E E  E E E Q E Q  E     Q   Q E   S E. Q  Q   Q
|-^8-8-8-^8-8---7---------|-<5>------|----------------|
|-^5-----^5---5-5-3-8-----|----------|---2------------|
|-^5-----^5---------------|------1-1-|-2-2-----6---9--|
|-^7-----^7---------------|------2-2-|-2-2-----6--11--|
|-^0-----^0-----------<7>-|------2-2-|-4-------4--11--|
|---------------0---0-----|-(0)--0---|-5----5--4---9--|
   Q      Q     Q   Q       +Q   Q     Q    Q  Q   Q


  |--3---| |-3-|      |-3-| |-3-| |-3-|      |-3-|  |3-| |3| |3|
  Q Q.   E E E E Q    E E E E E E E E E Q    E E E +Q  E Q E E Q
|-5-5----5----------|-5-5-5---5-5----------|-2h4-2-(2)--------------|
|-2-2----2-5---5----|-2-2-2---2-2-7-4-5----|-----------5-4-4-2-0----|
|-2-2----2-6-6-6----|-2-2-2---2-2-5-5-6----|-3------4----6----------|
|------------6------|-------------6-6-6----|-----------------4---4--|
|----------4-----4--|-------------------4--|-----------------2------|
|-2----2------------|-2-----2-----4--------|-2------4----6----------|
  Q    Q   Q     Q    Q     Q     Q     Q    Q      Q    Q   Q   E
  |                   |                                      |-3-|


  |3| |3-|  |-3-|           |-3-|  |3-| |-3-|         |-3-|  |3-| |-3-|
  Q E Q  E +Q   E   +Q      E E E +Q  E E E E +Q      E E E +Q  E E E E +Q
|-----5--9-(9)------------|-4-4-4-(4)---------------|-2-2-2-(2)---------------|
|-2-2-2--5-(5)------------|-----------7-5p4---------|-----------5-4p2---------|
|-2-2-2--6-(6)------------|--------5--------6-(6)---|--------3--------4-(4)---|
|-2-2----------<7>-(<7>)--|--------------------6--4-|--------------------4----|
|-0-0---------------------|-----6-------4-----------|-----4-------2---------2-|
|-------------------------|-4-----------------------|-2-----------------------|
  Q E H.                    Q   E  Q    Q      Q  E   Q   E  Q    Q      Q  E
  |3|                       |-3-|              |3-|   |-3-|              |3-|


   |3-|  |3-|                |3|            |3-| |3|      |3|
   Q  E  Q  E +H         Q   Q E  Q   Q    +Q  E Q E  Q   Q E
|--------5--9-(9)----|-<12>--0-----------|-------0--------2-2-|
|--------2--5-(5)----|-------0----2---7--|-(7)---0----2---3-3-|
|-^4-^2--2--6-(6)----|-------1----2---7--|-(7)---1----2---2-2-|
|-^4-^2--------------|---------2-(2)--7--|-(7)-2---2-(2)------|
|-^2-^0-(0)----------|-------------------|------------0---2-2-|
|--------------------|---0---------------|--0-----------------|
   Q  E +H.              W                  H         Q   Q E
   |3-|                                                   |3|


   |3-| |3|      |3|    |3-| |3|        |-3-|          |3-|        |-3-|
  +Q  E Q E  Q   Q E   +Q  E Q E  Q     Q   E    +Q    Q  E +Q     Q   E
|-(2)---0--------2-2-|-(2)---0--------^14-^14-|-(14)--^2-^2-(2)--^14-^14-|
|-(3)---0----2---3-3-|-(3)---0----2---^15-^15-|-(15)--^3-^3-(3)--^15-^15-|
|-(2)---1----2---2-2-|-(2)---1----2---^14-^14-|-(14)--^2-^2-(2)--^14-^14-|
|-----2---2-(2)------|-----2---2-(2)--^-0-^-0-|--(0)--^0-^0-(0)--^-0-^-0-|
|------------0-------|------------0-----------|--------------------------|
|--0-------------2---|--0---------------------|--------------------------|
   H         Q   Q      H         Q     Q   E    +Q    Q  E +Q     Q   E
                                        |-3-|          |3-|        |-3-|


         |3-|        |-3-|          |3-|        |-3-|
   +Q    Q  E +Q     Q   E    +Q    Q  E +Q     Q   E
|-(14)--^2-^2-(2)--^14-^14-|-(14)--^2-^2-(2)--^14-^14-|
|-(15)--^3-^3-(3)--^15-^15-|-(15)--^3-^3-(3)--^15-^15-|
|-(14)--^2-^2-(2)--^14-^14-|-(14)--^2-^2-(2)--^14-^14-|
|--(0)--^0-^0-(0)--^-0-^-0-|--(0)--^0-^0-(0)--^-0-^-0-|
|--------------------------|--------------------------|
|--------------------------|--------------------------|
   +Q    Q  E +Q     Q   E    +Q    Q  E +Q     Q   E
         |3-|        |-3-|          |3-|        |-3-|


        T       T     T       T     T
        |---3---|     |---3---|     |---3---|
   +Q   E     E E     E     E E     E     E E
|-(14)----------------7(19)-5------------------|
|-(15)--7(19)p5---------------7(19)-7(19)p5----|
|-(14)----------7(19)-----------------------7--|
|--(0)------------------------------0-------0--|
|----------------------------------------------|
|----------------------------------------------|
   +H.                              Q       E
                                    |---3---|


     T       T     T         T         T
     |---3---|     |---3---| |---3---| |---3---|
     E     E E     E     E E E     E E E     E E
||---7(19)p5-----------------7(19)p5-------------|
||o----------7(19)-7(19)p5-----------7-7(19)p5---|
||-------------------------7-------------------7-|
||--(0)--------------------------------0-------0-|
||o----------------------------------------------|
||-----------------------------------------------|
    +H.                                Q       E
                                       |---3---|


   T       T     T         T         T
   |---3---|     |---3---| |---3---| |---3---|
   E     E E     E     E E E     E E E     E E
|--7(19)p5-----------------7(19)p5--------------||
|----------7(19)-7(19)p5-----------7-7(19)p5---o||
|------------------------7-------------------7--||
|-(0)--------------------------------0-------0--||
|----------------------------------------------o||
|-----------------------------------------------||
  +H.                                Q       E
                                     |---3---|


Duration Legend
---------------
W - whole; H - half; Q - quarter; E - 8th; S - 16th; T - 32nd; X - 64th; a - acciaccatura
+ - note tied to previous; . - note dotted; .. - note double dotted
Uncapitalized letters represent notes that are staccato (1/2 duration)
Irregular groupings are notated above the duration line
Duration letters will always appear directly above the note/fret number it represents the
duration for.  Duration letters with no fret number below them represent rests.  Multi-
bar rests are notated in the form Wxn, where n is the number of bars to rest for.  Low
melody durations appear below the staff

Tablature Legend
----------------
 h   - hammer-on
 p   - pull-off
 b   - bend
 pb  - pre-bend
 r   - bend release (if no number after the r, then release immediately)
 /\  - slide into or out of (from/to "nowhere")
 s   - legato slide
 S   - shift slide
  - natural harmonic
[n]  - artificial harmonic
n(n) - tapped harmonic
 ~   - vibrato
 tr  - trill
 T   - tap
 TP  - trem. picking
 PM  - palm muting
\n/  - tremolo bar dip; n = amount to dip
 \n  - tremolo bar down
 n/  - tremolo bar up
/n\  - tremolo bar inverted dip
 =   - hold bend; also acts as connecting device for hammers/pulls
 <>  - volume swell (louder/softer)
 x   - on rhythm slash represents muted slash
 o   - on rhythm slash represents single note slash

Misc Legend
-----------
 |  - bar
||  - double bar
||o - repeat start
o|| - repeat end
*|  - double bar (ending)
 :  - bar (freetime)
 $  - Segno
 &  - Coda
Tempo markers -  = BPM(8/16=s8/s16), where s8 = swing 8ths, s16 = swing 16ths
Добавлено: 24.04.2012
Вам также может быть интересно:
Другие материалы по этой песне:

Страница создана 24.02.2012
http://primanota.ru/edgar-cruz/killer-queen-chords.htm
Привет, Гость.
Предлагаем пройти революционный курс по гитаре.
Подарок от PrimaNota.Ru, забирай!