PrimaNota.ru - самый крупный в мире бесплатный архив песенных текстов, аккордов, табулатур и нот


Edgar Cruz - Crazy Little Thing Called Love - таба, видео

Регистрация Запомнить меня
Войти через:  Facebook Google Twitter Vk Yandex Mail.ru

Edgar Cruz - Crazy Little Thing Called Love - таба, видео

Печатать
Просмотров: 158
Уроки эстрадного вокала в Санкт-Петербурге
-------------------------------------------------------------------------------
			 CRAZY LITTLE THING CALLED LOVE - Queen
			   Arrangement by Edgar Cruz
-------------------------------------------------------------------------------
Tabbed by: metallhead
Email: homesticky@gmail.com

Tuning: E A D G B E


Gtr I (E A D G B E)

  Q=120
 4/4
  Gtr I
  |3| |3|  |3-| |3|   |3| |3|  |3-| |3|   |3| |3|  |3-| |3|   |3| |3|      |3|
  Q E Q E +Q  E Q E   Q E Q E +Q  E Q E   Q E Q E +Q  E Q E   Q E Q E +Q   Q E
|-2-2-3-2-(2)-2-2-2-|-2-2-3-2-(2)-2-2-2-|-2-2-3-2-(2)-2-2-2-|-2-2-3-2-(2)------|
|-3-3-3-3-(3)-3-3-3-|-3-3-3-3-(3)-3-3-3-|-3-3-3-3-(3)-3-3-3-|-3-3-3-3-(3)------|
|-2-2-2-2-(2)-2-2-2-|-2-2-2-2-(2)-2-2-2-|-2-2-2-2-(2)-2-2-2-|-2-2-2-2-(2)--4-2-|
|-0-0-0-0-(0)-0-0-0-|-0-0-0-0-(0)-0-0-0-|-0-0-0-0-(0)-0-0-0-|-0-0-0-0-(0)------|
|-------------------|-------------------|-------------------|------------------|
|-------------------|-------------------|-------------------|------------------|


   |-3--| |3| |3| |3|    |-3--| |3| |3| |3|    |-3--| |3| |3|
  +E  E E Q E Q E Q E   +E  E E Q E Q E Q E   +E  E E Q E Q E Q
|-------2---2---2-----|-------2---2---2-----|-------3---3---3-----|
|-------3---3---3-0---|-------3---3---3-0-3-|-(3)---3---3---3-3---|
|-(2)---2---2---2---2-|-(2)---2---2---2-----|-------0---0---0-0---|
|--0------------------|--0------------------|-------------0-------|
|-------------0---2---|-------------0---2---|---------2-------2---|
|---------2-----------|---------2-----------|--3------------------|
   Q      Q   Q   Q      Q      Q   Q   Q      Q      Q   Q   Q


     |3|      |3|    |-3--| |3| |3| |3|    |-3--| |3| |3| |3|
  Q  Q E +Q   Q E   +E  E E Q E Q E Q E   +E  E E Q E Q E Q E
|-----------------|-------2---2---2-----|-------2---2---2-----|
|-6--5-3-(3)--0---|-------3---3---3-0---|-------3---3---3-0-3-|
|-0--0-0-(0)----2-|-(2)---2---2---2---2-|-(2)---2---2---2-----|
|-----------------|--0------------------|--0------------------|
|-3--3----2-------|-------------0---2---|-------------0---2---|
|-------------3---|---------2-----------|---------2-----------|
  Q  Q    Q   Q      Q      Q   Q   Q      Q      Q   Q   Q


   |-3--| |3|             |3|  |3-|      |3|  |-3--| |3|
  +E  E E Q E E E Q    Q  Q E +Q  E Q    Q E +E  E E Q E +Q
|-------3---3--------|-----------------|-2-2-(2)-----------------|
|-(3)---3---3-----3--|-6--5-3-(3)-3-3--|-----------3---3-(3)-----|
|-------0---0-----0--|-0--0-0-(0)------|-----------2---2-(2)-----|
|-------------0------|-----------------|-0-----------------------|
|---------2-------2--|-3--3----2-------|-------------0-0h=2p0----|
|--3-----------------|--------------3--|------2---------------2--|
   Q      Q   Q   Q    Q  Q    Q    Q    Q    Q      Q E  E E E
                                         |           |3|  |-3-|


  |3| |3|         |-3-| |3| |3|
  Q E Q E Q  Q    E E E Q E Q E Q       Q  Q  Q  Q
|---------------|-----2---2---2-------|-2------------|
|---------------|-----3---3---3-------|-3--------0---|
|---------------|-----2---2---2-------|-2----------2-|
|-3-3-3-3-5--5--|-0-------------------|-0------------|
|-1-1-1-1-3--3--|-----------0-0h2p0-2-|--------------|
|---------------|-------2-------------|--------------|
                  Q     Q   Q E E E E   Q  Q  Q  Q E
                  |         |3| |-3-|            |3|


   |3-| |3|      |3|    |3-| |3|      |3|    |3-|  |-3--|
  +Q  E Q E +Q   Q E   +Q  E Q E +Q   Q E   +Q  E +E  E E +E  E Q
|-----2-3-2-(2)------|-----2-3-2-(2)------|-----3-(3)---3-(3)------|
|-----3-3-3-(3)--0---|-----3-3-3-(3)--0-3-|-(3)-3-(3)---3-(3)---3--|
|-(2)-2-2-2-(2)----2-|-(2)-2-2-2-(2)------|-----0-(0)---0-(0)------|
|--0----0--------0---|--0----0--------0---|----------------0-------|
|------------0-------|------------0-------|--------2------------2--|
|--------------------|--------------------|--3---------------------|
   Q    Q    Q   Q      Q    Q    Q   Q      Q     Q       Q    Q
   |                    |


     |3|      |3|    |3-| |3|      |3|    |3-| |3|
  Q  Q E +Q   Q E   +Q  E Q E +Q   Q E   +Q  E Q E +H
|-----------------|-----2-3-2-(2)------|-----2-3-2-(2)-----|
|-6--5-3-(3)--0---|-----3-3-3-(3)--0---|-----3-3-3-(3)-----|
|-0--0-0-(0)----2-|-(2)-2-2-2-(2)----2-|-(2)-2-2-2-(2)-----|
|-----------------|--0----0----0---0---|--0----0----0---0--|
|-3--3----2-------|--------------------|-------------------|
|-------------3---|--------------------|-------------------|
  Q  Q    Q   Q      Q    Q    Q   Q      Q    Q    Q   Q
                     |                    |


        |3|      |3|  |3-|  |3-| |3|   |3|  |-3--| |3|
  Q  Q  Q E Q    Q E +Q  E +Q  E Q E   Q E +E  E E Q E +Q
|---------0----|---------------------|-2-2-(2)----------------|
|-3--3--3---3--|-6-5-(5)-3-(3)-3-3-3-|-----------3---3-(3)----|
|-0--0--0---0--|-0-0-----0-------0---|-----------2---2-(2)----|
|-------0---2--|---------------------|-0----------------------|
|----2---------|-3----3-----2--------|-------------0-0h=2p0---|
|-3------------|-----------------3---|------2---------------2-|
  Q  Q  Q   Q    Q    Q     Q    Q     Q    Q      Q E  E E E
                                       |           |3|  |-3-|


  |3| |3|         |3| |3| |3|
  Q E Q E Q  Q    Q E Q E Q E Q       E E Q  Q  Q
|---------------|---2---2---2-------|-2------------|
|---------------|---3---3---3-------|-3---3--3--3--|
|---------------|---2---2---2-------|-2------------|
|-3-3-3-3S5--5--|-0-----------------|-0------------|
|-1-1-1-1S3--3--|---------0-0h2p0-2-|--------------|
|---------------|-----2-------------|--------------|
  W               Q   Q   Q E E E E   E E Q  H
                          |3| |-3-|


  |3|  |3-|  |3-|  |3-|    |3-|  |3-|  |3-|  |3-|      |3| |3|  |3-|
  Q E +Q  E +Q  E +Q  E   +Q  E +Q  E +Q  E +Q  E   Q  Q E Q E +Q  E
|-1-0-(0)---------------|-------------------------|-0--0-0-0-0-(0)---|
|-0-------3-(3)---------|-----0-(0)-0-(0)-0-(0)-3-|-1--1---1-------3-|
|-0-------------0-(0)-0-|-(0)-0-(0)-0-(0)-0-(0)---|-0--0---0-------0-|
|------2-----0-----2----|--------2-----0-----2----|----------------0-|
|-----------------------|-------------------------|-3--3---3---------|
|-3---------------------|--3----------------------|-------------3----|
  Q    Q     Q     Q       Q     Q     Q     Q      Q  Q   Q    Q


       |3| |3|      |3|  |3-|  |3-|  |3-|    |3-|  |-3-|  |3| |3|
  +Q   Q E Q E Q    Q E +Q  E +Q  E +Q  E   +Q  E +Q  +E  Q E Q E
|-----------------|-1-0-(0)---------------|-----------------------|
|-(3)--3---3---3--|---------3-(3)---------|-----------------3-3-3-|
|-(0)----0---0----|---------------3-(3)-3-|-(3)-3-(3)-(3)---------|
|-(0)--2---0---2--|-----------------------|--1-----0--------------|
|-----------------|-1----0----------------|---------------3---1---|
|--3--------------|------------3-----1----|-----------------------|
   Q   Q   Q   Q    Q    Q     Q     Q       Q     Q      Q   Q


        |-3--|        |-3-|  |-3--| |3|  |3-|         |3| |-3-|
  Q  Q  E E  E  E E   E E E +E  E E Q E +Q  E   H     Q E E E E
|-0--0--0-----------|-1-----------------------|---------x-x-x-x--|
|-0--0--2---<7>-----|-1-----------------------|------------------|
|-1--1--2---------0-|-2---2-(2)-2-2-5-4-(4)-2-|------------------|
|-------------------|-3-----------------------|------------------|
|-------0-------0---|-3-----------------------|---5-4-3----------|
|-0--0--------------|-1-----------------------|------------------|
  Q  Q  Q       Q     Q      H.                 Q Q Q Q   Q
                                                |-3-|


            |3| |-3-|   |-3-| |-3-|              |3| |3|
  E E   Q   Q E E E E   Q Q Q Q Q Q   E   E   Q  Q E Q E
|-x-----------x-x-x-x-|-0-0-0-0-0-0-|-5------------------|
|---------------------|-0-0-0-0-0-0-|-2--------------0---|
|---------------------|-1-1-1-1-1-1-|-2------------2---2-|
|-----7---6-5---------|-------------|---------0--4-------|
|---------------------|-------------|-0-----0------------|
|-----5---4-3---------|-0-0-0-0-0-0-|---------3--2---0---|
  Q   Q   Q Q   Q       Q Q Q Q Q Q   E E   E Q  Q   Q
  |---3---|             |-3-| |-3-|   |--3--|


   |3-| |3|      |3|         |3|       |3|    |-3--| |-3--|
  +Q  E Q E +Q   Q E   +E  E Q E S S E Q E   +Q    E E E  E  +Q   Q
|-----2-3-2-(2)------|---------------------|-------3-3---13-(13)------|
|-----3-3-3-(3)--0---|-------8-6h7p6h7-0-3-|-(3)---3-3---12-(12)--3---|
|-(2)-2-2-2-(2)----2-|-(2)---7-------------|-------0-0----0--(0)--0---|
|--0----0----0---0---|--0----0---------0---|-------0-0----------------|
|--------------------|---------------------|-------2-2------------2---|
|--------------------|---------------------|--3----3-3----------------|
   Q    Q    Q   Q      Q    H         Q      E  E E E E  E  +Q   Q
   |                                          |-3--| |-3--|


     |3|      |3|         |-3--|        |3|    |3-| |3|
  Q  Q E +Q   Q E   +Q    E E  E  +E  E Q E   +Q  E Q E +H
|-----------------|------10---10-(10)-------|-----2-3-2-(2)-----|
|-6--5-3-(3)--0---|-------0-------------0---|-----3-3-3-(3)-----|
|-0--0-0-(0)----2-|-(2)-------------------2-|-(2)-2-2-2-(2)-----|
|-----------------|--0----0--------0----0---|--0----0----0---0--|
|-3--3----2-------|-------------------------|-------------------|
|-------------3---|-------------------------|-------------------|
  Q  Q    Q   Q      Q    Q        Q    Q      Q    Q    Q   Q


        |3|       |3|  |3-|  |-3--| |3|   |3|        |-3--|  |--3--|
  Q  Q  Q E Q     Q E +Q  E +E  E E Q E   Q E +E  E  E E  E  E  E  E
|---------0-----|-----------------------|-2-2-(2)---13---12-10----10--|
|-3--3--3---3---|-6-5-(5)-3-(3)---3-3-3-|-----------10---------13-----|
|-0--0--0---0---|-0-0-(0)-0-(0)-----0---|-----------------------------|
|-------0---2-0-|-----------------------|-0----0-------------0--------|
|----2----------|-3----3-----2------3---|-----------------------------|
|-3-------------|-----------------------|-----------------------------|
  Q  Q  Q   Q E   Q    Q     Q      Q     Q    H             Q
            |3|                           |                  |


  |3| |3|         |-3-| |3| |3|         |-3--|  |-3--|  |3-|  |3-|
  Q E Q E Q  Q    E E E Q E Q E Q       E E  E  E E  E  Q  E  Q  E
|---------------|-----2---2---2-------|-2---/3-10---10-10-10-10-10-|
|---------------|-----3---3---3-------|-3---/3-10---10-10-10-10-10-|
|---------------|-----2---2---2-------|-2--------------------------|
|-3-3-3-3-5--5--|-0-------------------|-0--------------------------|
|-1-1-1-1-3--3--|-----------0-0h2p0-2-|----------------------------|
|---------------|-------2-------------|----------------------------|
                  Q     Q   Q E E E E   W
                  |         |3| |-3-|   |


           |-3-| |3|              |3-|       |3-|   |--3--|       |-3--|
   Q   Q   E E E Q E   +H      a  Q  E  Q    Q  E  +E  E  E  E E  E E  E
|-10--10--10p8p6-8-6-|-(6)-----8S10--------|---10-(10)---10-10------------|
|--6---6-------------|--------------<6>----|---10-(10)---10-10---12-------|
|--------------------|---------------------|---------------------12---10h=|
|--------------------|---------------------|-0------0--------0----0-------|
|--------------------|---------------------|------------------------------|
|--6---6---6-----6---|--6---6-----6-----6--|------------------------------|
   Q   Q   Q     Q      Q   Q     Q     Q    Q      Q        Q    Q
                                             |


   |-3--|  |--3--|  |-3--|
   E E  E  E  E  E  E E  E Q
|------------------10---10----|
|------------10h12------------|
|-11---10h11------------------|
|--0-------0--------0------0--|
|-----------------------------|
|-----------------------------|
   Q       Q        Q      Q
   |


   |3-|  |3-|  |-3--| |3-|            |3-|    |3-|
   Q  E  Q  E  E E  E Q  E    +Q   a  Q  E Q  Q  E
|----13----13-10-8----8----|------------13------11-|
|-15----15---------11---11-|-(11)--8S15---------11-|
|--------------------------|-----------------------|
|--------------------------|----------0------------|
|-13----12----10------8----|---6-------------------|
|--------------------------|---------------8--6----|
   Q     Q     Q      Q        Q      Q    Q  Q


    |3-|  |3-|   |3-|  |3|         |-3-| |3|         |3| |-3-|
    Q  E  Q  E   Q  E  Q E   Q  Q  E E E Q E   H     Q E E E E
|-/12-12-10-12-----------0-|-5--5--8p7p5-7-5-|---------x-x-x-x-|
|-/12-12-------/14-10------|-1---------------|-----------------|
|---------------------11---|-----------------|-----------------|
|--------------------------|-----------------|-----------------|
|----------------0-----0---|-3---------------|---5-4-3---------|
|---0-----0----------------|-1---------------|-----------------|
    Q     Q      Q     Q     Q  Q  H           Q Q Q Q   Q
                                               |-3-|


            |3| |-3-|   |-3-| |-3-|
  E E   Q   Q E E E E   Q Q Q Q Q Q   E E Q  Q   Q
|-x-----------x-x-x-x-|-0-0-0-0-0-0-|-5---x------x---|
|---------------------|-0-0-0-0-0-0-|-2--------------|
|---------------------|-1-1-1-1-1-1-|-2--------------|
|-----7---6-5---------|-------------|----------7-9-7-|
|---------------------|-------------|-0---5--9-------|
|-----5---4-3---------|-0-0-0-0-2-4-|----------------|
  Q   Q   Q Q   Q       Q Q Q Q Q Q   E E Q  Q E Q E
  |---3---|             |-3-| |-3-|          |3| |3|


   Q   Q  Q  Q      Q   Q  Q  Q      Q   Q  Q   Q
|------x-----x---|------x-----x---|------x------x----|
|----------------|----------------|------------------|
|----------------|--------------7-|-(7)---------7-10-|
|-(7)--------9-7-|-(7)--------9---|-----------9------|
|----------------|----------------|------------------|
|----------------|----------------|------------------|
  +Q   Q  Q  Q E   +Q   Q  Q  Q E   +Q   Q  Q E Q  E
             |3|              |3|           |3| |3-|


    Q     Q     Q    Q     Q  Q  Q  Q     Q  Q  Q  Q
|---------x----------x---|----x-----x---|----x-----x--|
|------------------------|--------------|-------------|
|-(10)-9-(x)-7-(7)---4-4S|=5--4-------4S|=5-----------|
|----------------------3S|=4--------9-6S|=7-----------|
|----------------------4S|=5----------4S|=5-----------|
|------------------------|--------------|-------------|
   +Q  E +Q  E +E  E Q E   Q  Q  Q  Q E   Q  Q  H
    |3-|  |3-|       |3|            |3|


  Q   Q  Q   Q     Q    Q     Q    Q     Q   Q   Q   Q
|-----x------x---|------x----------x---|-----x-------x--|
|-3-3-3--3-3-5-3-|-6-5-(5)-3-(3)-3-3-3-|-7-7------------|
|-4----------5---|-6-------4-(4)-------|-----5-5-4-5----|
|-5----------5---|-5-------5-(5)-------|-----4-4-3-4----|
|----------------|---------------------|-----5-5-4-5----|
|----------------|---------------------|----------------|
  Q E Q  Q E Q E   Q E +Q  E +Q  E Q E   Q E Q E Q E Q
  |3|    |3| |3|   |3|  |3-|  |3-| |3|   |3| |3| |3|


                     |-3-| |-3--| |-3-| |-3-|               |3|
  Q   Q    Q   Q     E E E E  E E E E E E E E   E E   Q  Q  Q E
|-----x--------x--|--0-0-0-0--0-0-0-0-0-0-0-0-|-x---------------|
|-----------------|---------------------------|-------------0---|
|-----------------|---------------------------|---------------2-|
|-----------------|---------------------------|-----------------|
|-8-8-8-8-10--10--|---------------------------|-----5-----------|
|-----------------|-10------------------------|-------3--2--0---|
  Q E Q E  Q   Q     E Q   H.                   Q   E Q  Q  Q
  |3| |3|            |3|                        |-3-|


        |-3--|        |3|
  +Q    E E  E  +E  E Q E
|------10---10-(10)-------|
|------10-------------0---|
|-(2)-------------------2-|
|--0----0--------0----0---|
|-------------------------|
|-------------------------|
   Q    Q        Q    Q


   |--3---|   |-3-|  |-3-| |3|    |3-| |3-|   |3-|
  +E  E   E  +Q   E  E E E Q E   +Q  E Q  E  +Q  E Q
|-------/10-(10)-10-10---------|-----3-3-13-(13)-0-----|
|-------/10-(10)-10-10-----0-3-|-(3)-3-3-12-(12)---3---|
|-(2)--------------------2-----|-----0-0-----------0---|
|--0----------0------0-----0---|-----0-0---------------|
|------------------------------|-----------------------|
|------------------------------|--3----0-----------3---|
   Q          Q      Q     Q      Q    H           Q


     |3|      |3|         |3|      |3|    |-3--|        |3|
  Q  Q E +Q   Q E   +Q    Q E +Q   Q E   +E  E E   +Q   Q E Q
|-----------------|--------------------|-----------------------|
|-6--5-3-(3)--0---|----------------0---|-------8b9-(8)--8-6-0--|
|-0--0-0-(0)----2-|-(2)--10-7-(7)----2-|-(2)-------------------|
|-----------------|--0----0----0---0---|--0---------0---0---0--|
|-3--3----2-------|--------------------|-----------------------|
|-------------3---|--------------------|-----------------------|
  Q  Q    Q   Q      Q    Q    Q   Q      Q         Q   Q   Q


        |3|      |3|  |3-|  |3-|      |3|
  Q  Q  Q E Q    Q E +Q  E +Q  E Q    Q E Q   Q   Q
|---------0----|--------------------|----------------|
|-3--3--3---3--|-6-5-(5)-3-(3)-3-3--|-7-7-8---9--10--|
|-0--0--0---0--|-0-0-(0)-0-(0)------|-7-7-9--10--11--|
|-------0------|--------------------|-0---0---0---0--|
|----2------2--|-3----3----------3--|----------------|
|-3------------|------------3-------|----------------|
  Q  Q  Q   Q    Q    Q     Q    Q    Q   Q   Q   Q


  |3| |3|    |3|         |3|            |3| |3|     |3|
  Q E Q E Q  Q E   +E  E Q E S S E Q    Q E Q E  Q  Q E
|----------------|--------------------|-----------------|
|-3-3-3-3-3--1-3-|-(3)---8-6h7p6-7----|-----------------|
|---------0--0---|-----------------7--|-----------------|
|-3-3-3--------4-|-(4)---0---0-----0--|-3-3-3-3-/5--5-0-|
|-1---1---3--3---|--5-----------------|-1---1---/3--3---|
|----------------|--------------------|-----------------|
  Q   Q   Q  Q      Q    Q   Q     Q


  |-3--|  |-3--|  |3-|  |3-|   |3| |-3-|      |3|    |3-|     |3-|  |--3--|
  E E  E  E E  E  Q  E  Q  E   Q E E E E +Q   Q E   +Q  E Q   Q  E  E  E  E
|-----10-10---10-10-10-10-10-|--------------------|-----2-2--13-12-10----10-|
|-----10-10---10-10-10-10-10-|--------------------|-----3-3-----------13----|
|----------------------------|-----0-2-0-(0)------|-----2-2-----------------|
|-0-------0-------0-----0----|-3-3------------3-0-|-(0)---0---0-----0-------|
|----------------------------|-1---1------3---3---|-------------------------|
|----------------------------|--------------------|-------------------------|
  Q       Q       Q     Q      Q   Q      Q   Q E    Q    Q   Q     Q
                                              |3|


  |3| |-3-|      |-3-|    |3-| |3| |3|      |3| |-3-|      |3|
  Q E E E E +Q   E E E   +Q  E Q E Q E Q    Q E E E E +Q   Q E
|----------------------|-----2-2-2-2-2-2--|----------------1----|
|-3-3-1---3-(3)--1---3-|-(3)-3-3-3-3-3-3--|-3-3-1---3-(3)----3--|
|-------2----------2---|-----2-2-2-2-2-2--|-------2-------------|
|----------------------|--0--0-0-0-0-0-0--|---------------------|
|-1---1------3---3-----|------------------|-1---1------3---3----|
|----------------------|------------------|---------------------|
  Q   Q      Q   Q        Q  E Q E Q E Q    Q   Q      Q   Q
                          |3-| |3| |31:1


  |--3--|  |-3--|  |3-|  |3-|   |3| |3|    |3|    |3-| |3| |3|
  E E   E  E E  E  Q  E  Q  E   Q E Q E Q  Q E   +Q  E Q E Q E Q
|-----/10-10---10-10-10-10-10-|---------3--1---|-----2-2-2-2-2-2--|
|-----/10-10---10-10-10-10-10-|-3-3-3-3------3-|-(3)-3-3-3-3-3-3--|
|-----------------------------|---------0------|-----2-2-2-2-2-2--|
|-0--------0-------0-----0----|-3---3----------|--0--0-0-0-0-0-0--|
|-----------------------------|-1---1---3--3---|------------------|
|-----------------------------|----------------|------------------|
  Q        Q       Q     Q      Q   Q   Q  Q      Q  E Q E Q E Q
                                                  |3-| |3| |31:1


  |3| |-3-|      |3|    |-3--| |3| |3|
  Q E E E E +Q   Q E   +E  E E Q E Q E Q       W
|--------------------|-------2---2---2-------|-2----------*|
|--------------------|-------3---3---3-------|-3----------*|
|-----0h2p0-(0)------|-------2---2---2-------|-2----------*|
|-3-3------------3-0-|-(0)-------------------|-0----------*|
|-1---1------3-------|-------------0-0h2p0-2-|------------*|
|--------------------|---------2-------------|------------*|
  Q   Q      Q   Q E   +Q      Q   Q E E E E   Q  Q  H
                 |3|               |3| |-3-|


Duration Legend
---------------
W - whole; H - half; Q - quarter; E - 8th; S - 16th; T - 32nd; X - 64th; a - acciaccatura
+ - note tied to previous; . - note dotted; .. - note double dotted
Uncapitalized letters represent notes that are staccato (1/2 duration)
Irregular groupings are notated above the duration line
Duration letters will always appear directly above the note/fret number it represents the
duration for.  Duration letters with no fret number below them represent rests.  Multi-
bar rests are notated in the form Wxn, where n is the number of bars to rest for.  Low
melody durations appear below the staff

Tablature Legend
----------------
 h   - hammer-on
 p   - pull-off
 b   - bend
 pb  - pre-bend
 r   - bend release (if no number after the r, then release immediately)
 /\  - slide into or out of (from/to "nowhere")
 s   - legato slide
 S   - shift slide
  - natural harmonic
[n]  - artificial harmonic
n(n) - tapped harmonic
 ~   - vibrato
 tr  - trill
 T   - tap
 TP  - trem. picking
 PM  - palm muting
\n/  - tremolo bar dip; n = amount to dip
 \n  - tremolo bar down
 n/  - tremolo bar up
/n\  - tremolo bar inverted dip
 =   - hold bend; also acts as connecting device for hammers/pulls
 <>  - volume swell (louder/softer)
 x   - on rhythm slash represents muted slash
 o   - on rhythm slash represents single note slash

Misc Legend
-----------
 |  - bar
||  - double bar
||o - repeat start
o|| - repeat end
*|  - double bar (ending)
 :  - bar (freetime)
 $  - Segno
 &  - Coda
Tempo markers -  = BPM(8/16=s8/s16), where s8 = swing 8ths, s16 = swing 16ths
Добавлено: 16.05.2012
Другие материалы по этой песне:

Страница создана 03.04.2012
http://primanota.ru/edgar-cruz/crazy-little-thing-called-love-chords.htm
Привет, Гость.
Предлагаем пройти революционный курс по гитаре.
Подарок от PrimaNota.Ru, забирай!