PrimaNota.ru - самый крупный в мире бесплатный архив песенных текстов, аккордов, табулатур и нот


Edens Curse - Trinity - таба, видео

Регистрация Запомнить меня
Войти через:  Facebook Google Twitter Vk Yandex Mail.ru

Edens Curse - Trinity - таба, видео

Печатать
Просмотров: 139
-------------------------------------------------------------------------------
                             TRINITY - Eden's Curse
-------------------------------------------------------------------------------

Tabbed by: Nicolas Comtois
Email: nicom7@hotmail.com

Tuning:
Gtr I (C# G# C# F# A# D#) - 'Rhythm'
Gtr II (C# G# C# F# A# D#) - 'Lead 1'
Gtr III (C# G# C# F# A# D#) - 'Lead 2'

 Intro
  Fast Rock Q=145
 4/4
  Gtr I
                      PM----|     PM|         PM|
  Q  E Q.   E E   E E S S S S  E  S S  E      S S
|---------------|---------------------------------|
|-3----3----3---|---------------------------------|
|-2----3----3---|---------------------------------|
|-0----0----0-0-|---------------------------------|
|-0-----------0-|---5---------[5]-----[5]b5.5-----|
|----0----------|-0---0-0-0-0-----0-0---------0-0-|
|
| Gtr II
| W               W
|---------------|---------------------------------|
|---------------|---------------------------------|
|---------------|---------------------------------|
|---------------|---------------------------------|
|---------------|---------------------------------|
|---------------|---------------------------------|
|
| Gtr III
| W               W
|---------------|---------------------------------|
|---------------|---------------------------------|
|---------------|---------------------------------|
|---------------|---------------------------------|
|---------------|---------------------------------|
|---------------|---------------------------------|


  Q  E Q.     E    E    +Q   E  Q.   E E
|--------------------|--------------------|
|-3----3-------------|--------------------|
|-2----3-----------5-|--(5)-----3----3----|
|-0----0-----------5-|--(5)-----3----3----|
|-0----------------3-|--(3)-----1----1----|
|----0--------0------|-------0---------0--|
|
| H       Q.    a  E    +Q   E  Q.   E E
|--------------------|--------------------|
|---------------8s10-|-(10)--8-------8----|
|--------------------|---------10---------|
|--------------------|--------------------|
|--------------------|--------------------|
|--------------------|--------------------|
|
| H       Q.    a  E    +Q   E  Q.   E E
|--------------------|--------------------|
|--------------------|--------------------|
|---------------9s10-|-(10)--9--7----9----|
|--------------------|--------------------|
|--------------------|--------------------|
|--------------------|--------------------|


                            PM----|     PM|         PM|
     Q  E Q.   E E     E  E S S S S  E  S S  E      S S
||-----------------|------------------------------------|
||o--3----3----3---|------------------------------------|
||---2----3----3---|------------------------------------|
||---0----0----0-0-|------------------------------------|
||o--0-----------0-|------5---------[5]-----[5]b5.5-----|
||------0----------|---0----0-0-0-0-----0-0---------0-0-|
|
|    W                +W
||-----------------|------------------------------------|
||o----------------|------------------------------------|
||--10-------------|-(10)-------------------------------|
||-----------------|------------------------------------|
||o----------------|------------------------------------|
||-----------------|------------------------------------|
|
|    W                +W
||-----------------|------------------------------------|
||o----------------|------------------------------------|
||---7-------------|--(7)-------------------------------|
||-----------------|------------------------------------|
||o----------------|------------------------------------|
||-----------------|------------------------------------|


    Q   E Q.       E    E    +Q   E  Q.   E E
|-------------------------|----------------------||
|---3-----3---------------|---------------------o||
|---2-----3-------------5-|--(5)-----3----3------||
|---0-----0-------------5-|--(5)-----3----3------||
|---0-------------------3-|--(3)-----1----1-----o||
|-------0----------0------|-------0---------0----||
|
|  +H         +Q.    a  E    +Q   E  Q.   E E
|-------------------------|----------------------||
|--------------------8s10-|-(10)--8-------8-----o||
|-(10)-------(10)---------|---------10-----------||
|-------------------------|----------------------||
|-------------------------|---------------------o||
|-------------------------|----------------------||
|
|  +H         +Q.    a  E    +Q   E  Q.   E E
|-------------------------|----------------------||
|-------------------------|---------------------o||
|--(7)--------(7)----9s10-|-(10)--9--7----9------||
|-------------------------|----------------------||
|-------------------------|---------------------o||
|-------------------------|----------------------||


                          PM----|     PM|         PM|
   Q  E Q.   E E     E  E S S S S  E  S S  E      S S
|----------------|------------------------------------|
|--3----3----3---|------------------------------------|
|--2----3----3---|------------------------------------|
|--0----0----0-0-|------------------------------------|
|--0-----------0-|------5---------[5]-----[5]b5.5-----|
|-----0----------|---0----0-0-0-0-----0-0---------0-0-|
|
|  W                +W
|----------------|------------------------------------|
|----------------|------------------------------------|
|-10-------------|-(10)-------------------------------|
|----------------|------------------------------------|
|----------------|------------------------------------|
|----------------|------------------------------------|
|
|  W                +W
|----------------|------------------------------------|
|----------------|------------------------------------|
|--7-------------|--(7)-------------------------------|
|----------------|------------------------------------|
|----------------|------------------------------------|
|----------------|------------------------------------|


    Q   E Q      E E E   +W           Q  Q  H
|----------------------|------------|------------|
|---3-----3------------|------------|------------|
|---2-----3------------|------------|------------|
|---0-----0--------3-5-|-(5)--------|-5----------|
|---0------------0-3-5-|-(5)--------|-5----------|
|-------0--------0-3-5-|-(5)--------|-5----------|
|
|  +H        +Q    Q      W           W
|----------------------|------------|------------|
|----------------------|------------|------------|
|-(10)------(10)-------|------------|------------|
|----------------------|------------|------------|
|----------------------|------------|------------|
|----------------------|------------|------------|
|
|  +H        +Q    Q      W           W
|----------------------|------------|------------|
|----------------------|------------|------------|
|--(7)-------(7)-------|------------|------------|
|----------------------|------------|------------|
|----------------------|------------|------------|
|----------------------|------------|------------|


   Pre-Verse
    $
    Gtr II
    e e e e e e e e   e e e e e e e e   e e e e e e e e   e e e e e e e e
||--5-5-5-5-5-5-5-3-|-3-3-3-3-3-3-3-3-|-6-6-6-6-6-6-6-5-|-5-5-5-5-5-5-5-5--||
||o-3-3-3-3-3-3-3-3-|-3-3-3-3-3-3-3-3-|-3-3-3-3-3-3-3-3-|-3-3-3-3-3-3-3-3-o||
||------------------|-----------------|-----------------|------------------||
||------------------|-----------------|-----------------|------------------||
||o-----------------|-----------------|-----------------|-----------------o||
||------------------|-----------------|-----------------|------------------||


 Verse
  Gtr I
      PM|       PM                             PM|       PM
  E E E E E  E  E E   +H     +E   E  Q     E E E E E  E  E E   E E E Q  E Q
|-------------------|--------------------|-------------------|--------------|
|---3-----3-(3)---3-|-(3)----(3)---------|---3-----3-(3)---3-|---3---3--3-3-|
|---2-----0h=2----3-|-(3)----(3)---------|---2-----0h=2----3-|---2---0--3-2-|
|---0-----0-(0)---0-|-(0)----(0)---------|---0-----0-(0)---0-|---0---0--0-0-|
|-------------------|--------------------|-------------------|--------------|
|-0---0-0-------0---|------------h0s15\--|-0---0-0-------0---|-0---0--------|


  Gtr I
      PM|       PM                             PM|       PM
  E E E E E  E  E E   +H     +E   E  Q     E E E E E  E  E E   E E E Q  E Q
|-------------------|--------------------|-------------------|--------------|
|---3-----3-(3)---3-|-(3)----(3)---------|---3-----3-(3)---3-|---3---3--3-3-|
|---2-----0h=2----3-|-(3)----(3)---------|---2-----0h=2----3-|---2---0--3-2-|
|---0-----0-(0)---0-|-(0)----(0)---------|---0-----0-(0)---0-|---0---0--0-0-|
|-------------------|--------------------|-------------------|--------------|
|-0---0-0-------0---|------------h0s12\--|-0---0-0-------0---|-0---0--------|


   Pre-Chorus
           PM----|              PM--------|
    Q  Q   E S S E E   +Q   Q   E S S E S S
||-------------------|----------------------|
||o-6--6\----------6-|-(6)--6\--------------|
||--5--5\----------3-|-(3)--3\--------------|
||--3--3\----------3-|-(3)--3\--------------|
||o-3--3\------------|----------------------|
||---------0-0-0-0---|----------0-0-0-0-0-0-|


         PM----|
  Q  Q   E S S E E   +E  E E E E E Q
|------------------|-------------------||
|-6--6\----------6-|-(6)S8-8---5h6-6\-o||
|-5--5\----------3-|-(3)S5-5---5---5\--||
|-3--3\----------3-|-(3)S5-5-5-5---5\--||
|-3--3\------------|------------------o||
|--------0-0-0-0---|-------------------||


                        PM|   PM  PM    PM|   PM  PM             PM
  E E E E E E E E   E E E E E E E E   E E E E E E E  E    +Q     E   Q.    Q
|-----------------|-----------------|------------------|----------------------|
|-----------------|-----------------|------------------|----------------------|
|-3-3-3-3---3---3-|---3-----3---3---|-5-----5---5----9-|--(9)---(9)-10----12\-|
|-3-3-3-3---3---3-|---3-----3---3---|-5-5-5-5---5---10-|-(10)--(10)-10----10\-|
|-1-1-1-1---1---1-|---1-0-0-1-0-1-0-|-3-3-3-3-3-3-3-10-|-(10)---10--10----10\-|
|-----------------|-----------------|------------------|----------------------|


 Chorus
                      PM----|     PM|         PM|
  Q  E Q.   E E   E E S S S S  E  S S  E      S S
|---------------|---------------------------------|
|-3----3----3---|---------------------------------|
|-2----3----3---|---------------------------------|
|-0----0----0-0-|---------------------------------|
|-0-----------0-|---5---------[5]-----[5]b5.5-----|
|----0----------|-0---0-0-0-0-----0-0---------0-0-|
|
| Gtr II
| W               W
|---------------|---------------------------------|
|---------------|---------------------------------|
|---------------|---------------------------------|
|---------------|---------------------------------|
|---------------|---------------------------------|
|---------------|---------------------------------|
|
| Gtr III
| W               W
|---------------|---------------------------------|
|---------------|---------------------------------|
|---------------|---------------------------------|
|---------------|---------------------------------|
|---------------|---------------------------------|
|---------------|---------------------------------|


  Q  E Q.     E    E    +Q   E  Q.   E E
|--------------------|-------------------|
|-3----3-------------|-------------------|
|-2----3-----------5-|--(5)-----3----3---|
|-0----0-----------5-|--(5)-----3----3---|
|-0----------------3-|--(3)-----1----1---|
|----0--------0------|-------0---------0-|
|
| H       Q.    a  E    +Q   E  Q.   E E
|--------------------|-------------------|
|---------------8s10-|-(10)--8-------8---|
|--------------------|---------10--------|
|--------------------|-------------------|
|--------------------|-------------------|
|--------------------|-------------------|
|
| H       Q.    a  E    +Q   E  Q.   E E
|--------------------|-------------------|
|--------------------|-------------------|
|---------------9s10-|-(10)--9--7----9---|
|--------------------|-------------------|
|--------------------|-------------------|
|--------------------|-------------------|


    $$
                            PM----|     PM|         PM|
     Q  E Q.   E E     E  E S S S S  E  S S  E      S S
||-----------------|------------------------------------|
||o--3----3----3---|------------------------------------|
||---2----3----3---|------------------------------------|
||---0----0----0-0-|------------------------------------|
||o--0-----------0-|------5---------[5]-----[5]b5.5-----|
||------0----------|---0----0-0-0-0-----0-0---------0-0-|
|
|    W                +W
||-----------------|------------------------------------|
||o----------------|------------------------------------|
||--10-------------|-(10)-------------------------------|
||-----------------|------------------------------------|
||o----------------|------------------------------------|
||-----------------|------------------------------------|
|
|    W                +W
||-----------------|------------------------------------|
||o----------------|------------------------------------|
||---7-------------|--(7)-------------------------------|
||-----------------|------------------------------------|
||o----------------|------------------------------------|
||-----------------|------------------------------------|


    Q   E Q.       E    E    +Q   E  Q.   E E
|-------------------------|----------------------||
|---3-----3---------------|---------------------o||
|---2-----3-------------5-|--(5)-----3----3------||
|---0-----0-------------5-|--(5)-----3----3------||
|---0-------------------3-|--(3)-----1----1-----o||
|-------0----------0------|-------0---------0----||
|
|  +H         +Q.    a  E    +Q   E  Q.   E E
|-------------------------|----------------------||
|--------------------8s10-|-(10)--8-------8-----o||
|-(10)-------(10)---------|---------10-----------||
|-------------------------|----------------------||
|-------------------------|---------------------o||
|-------------------------|----------------------||
|
|  +H         +Q.    a  E    +Q   E  Q.   E E
|-------------------------|----------------------||
|-------------------------|---------------------o||
|--(7)--------(7)----9s10-|-(10)--9--7----9------||
|-------------------------|----------------------||
|-------------------------|---------------------o||
|-------------------------|----------------------||


                          PM----|     PM|         PM|
   Q  E Q.   E E     E  E S S S S  E  S S  E      S S
|----------------|------------------------------------|
|--3----3----3---|------------------------------------|
|--2----3----3---|------------------------------------|
|--0----0----0-0-|------------------------------------|
|--0-----------0-|------5---------[5]-----[5]b5.5-----|
|-----0----------|---0----0-0-0-0-----0-0---------0-0-|
|
|  W                +W
|----------------|------------------------------------|
|----------------|------------------------------------|
|-10-------------|-(10)-------------------------------|
|----------------|------------------------------------|
|----------------|------------------------------------|
|----------------|------------------------------------|
|
|  W                +W
|----------------|------------------------------------|
|----------------|------------------------------------|
|--7-------------|--(7)-------------------------------|
|----------------|------------------------------------|
|----------------|------------------------------------|
|----------------|------------------------------------|


                                     To Coda
                                     To Coda
    Q   E Q.       E    E    +Q   E  Q.   Q
|-------------------------|---------------------|
|---3-----3---------------|---------------------|
|---2-----3-------------5-|--(5)-----3----3-----|
|---0-----0-------------5-|--(5)-----3----3-----|
|---0-------------------3-|--(3)-----1----1-----|
|-------0----------0------|-------0-------------|
|
|  +H         +Q.    a  E    +Q   E  Q.   E  E
|-------------------------|---------------------|
|--------------------8s10-|-(10)--8-------8-----|
|-(10)-------(10)---------|---------10----------|
|-------------------------|---------------------|
|-------------------------|---------------------|
|-------------------------|---------------------|
|
|  +H         +Q.    a  E    +Q   E  Q.   E  E
|-------------------------|---------------------|
|-------------------------|---------------------|
|--(7)--------(7)----9s10-|-(10)--9--7----9-----|
|-------------------------|---------------------|
|-------------------------|---------------------|
|-------------------------|---------------------|


 Interlude
   W                  +W
|------------------|--------------------|
|--3---------------|--(3)---------------|
|--2---------------|--(2)---------------|
|--0---------------|--(0)---------------|
|--0---------------|--(0)---------------|
|------------------|--------------------|
|
| Gtr II
|  e e e e e e e e     e  e e e e e e e
|--5-5-5-5-5-5-5-3-|---3--3-3-3-3-3-3-3-|
|--3-3-3-3-3-3-3-3-|---3--3-3-3-3-3-3-3-|
|-10---------------|-(10)---------------|
|------------------|--------------------|
|------------------|--------------------|
|------------------|--------------------|
|  w                  +w
|
| Gtr III
|  W                  +W
|------------------|--------------------|
|------------------|--------------------|
|--7---------------|--(7)---------------|
|------------------|--------------------|
|------------------|--------------------|
|------------------|--------------------|


                            D.S. al Coda
   +W                   +W
|--------------------|---------------------|
|--(3)---------------|--(3)----------------|
|--(2)---------------|--(2)----------------|
|--(0)---------------|--(0)----------------|
|--(0)---------------|--(0)----------------|
|--------------------|---------------------|
|
|   e  e e e e e e e     e  e e e e e e e
|---6--6-6-6-6-6-6-5-|---5--5-5-5-5-5-5-5--|
|---3--3-3-3-3-3-3-3-|---3--3-3-3-3-3-3-3--|
|-(10)---------------|-(10)----------------|
|--------------------|---------------------|
|--------------------|---------------------|
|--------------------|---------------------|
|  +W                   +W
|
|  +W                   +W
|--------------------|---------------------|
|--------------------|---------------------|
|--(7)---------------|--(7)----------------|
|--------------------|---------------------|
|--------------------|---------------------|
|--------------------|---------------------|


   Keyboard Solo
    &
    Gtr I
        PM|       PM
    E E E E E  E  E E   +H     +E   E  Q
||--------------------|--------------------|
||o---3-----3-(3)---3-|-(3)----(3)---------|
||----2-----0h=2----3-|-(3)----(3)---------|
||----0-----0-(0)---0-|-(0)----(0)---------|
||o-------------------|--------------------|
||--0---0-0-------0---|------------h0s12\--|


      PM|       PM
  E E E E E  E  E E   E E E Q  E Q
|-------------------|----------------||
|---3-----3-(3)---3-|---3---3--3-3--o||
|---2-----0h=2----3-|---2---0--3-2---||
|---0-----0-(0)---0-|---0---0--0-0---||
|-------------------|---------------o||
|-0---0-0-------0---|-0---0----------||


 Guitar Solo
                          PM---------|
   Q           Q          E     S  S  E     E
|------------------------------------------------|
|--6-----------6\---------------------------6----|
|--5-----------5\---------------------------3----|
|--3-----------3\---------------------------3----|
|--3-----------3\--------------------------------|
|-------------------------0-----0--0--0----------|
|
| Gtr II
|  PM---------|
|  S  S  S  S  S  S  S  S S  S  S  S  S  S  S  S
|---------------------------------------------12-|
|------------------------------------11-13-15----|
|-------------------------9-10-12s14-------------|
|-----------------9-10h12------------------------|
|----------10-12---------------------------------|
|-12-14-15---------------------------------------|


                             PM-----------------------------|
  +Q            Q            E  S   S       E            S    S
|--------------------------------------------------------------------|
|-(6)-----------6\---------------------------------------------------|
|-(3)-----------3\---------------------------------------------------|
|-(3)-----------3\---------------------------------------------------|
|--------------------------------------------------------------------|
|----------------------------0--0---0-------0------------0----0------|
|
|                            ~~~
|  S   S  S  S  S   S  S  S  E.    +S      +S   +S      +S   +S
|-15--12-13-15-13--12------------------------------------------------|
|---------------------15----17----(17)b20r(17)-(17)b20r(17)-(17)b20r=|
|------------------------15------------------------------------------|
|--------------------------------------------------------------------|
|--------------------------------------------------------------------|
|--------------------------------------------------------------------|


                    PM--------------|
    Q          Q    E          S  S  E     E
|-----------------------------------------------|
|---6----------6\--------------------------6----|
|---5----------5\--------------------------3----|
|---3----------3\--------------------------3----|
|---3----------3\-------------------------------|
|-------------------0----------0--0--0----------|
|
|  +S  S  Q.        S     +S   S  S  S  S  S  S
|--------12b13r====12b13r(12)-------------------|
|-(17)----x-------------------15-13-15----13----|
|--------------------------------------14----12-|
|-----------------------------------------------|
|-----------------------------------------------|
|-----------------------------------------------|


  +E      E     E     E     E E   Q
|-------------------------------------|
|-(6)S====8-----8-----------5h6---6\--|
|-(3)S====5-----5-----------5-----5\--|
|-(3)S====5-----5-----5-----5-----5\--|
|-------------------------------------|
|-------------------------------------|
|
|                                 ~~~~
|  S   S  S  S  S  S  S  S  Q    +Q
|-------------------------------------|
|-------------------------------------|
|-14-----12---------------------------|
|-----15----14-15-12-14s17------------|
|--------------------------15---(15)--|
|-------------------------------------|


                       PM---------|
   Q      Q            E     S  S  E      E
|----------------------------------------------------------|
|--6------6\------------------------------6----------------|
|--5------5\------------------------------3----------------|
|--3------3\------------------------------3----------------|
|--3------3\-----------------------------------------------|
|----------------------0-----0--0--0-----------------------|
|
|  ~~~~~
|                      |------6-------|   |------6-------|
|  Q      S  S  S  S   S  S  S  S  S  S   S  S  S  S  S  S
|--------10h13p10-----10-15p10-13-15p13p=10-10-------------|
|-13b15-----------13---------------------------13-10h13p10-|
|----------------------------------------------------------|
|----------------------------------------------------------|
|----------------------------------------------------------|
|----------------------------------------------------------|


                              PM----------------|
  +Q            Q             E     S  S    E S   S
|---------------------------------------------------------------------------|
|-(6)-----------6\----------------------------------------------------------|
|-(3)-----------3\----------------------------------------------------------|
|-(3)-----------3\----------------------------------------------------------|
|---------------------------------------------------------------------------|
|-----------------------------0-----0--0----0-0---0-------------------------|
|
|                                                 /     |     /2.5_____|
|  |-----6------|    |------6-------|             |---------6----------|
|  S   S  S  S  E    S  S  S  S  S  S  Q         +S    +E    +S       +E
|-------------------------------------15b17r====(15)--(15)--(15)-----(15)---|
|-----10-15p10-13---15p13p10----10-13---------------------------------------|
|-13-------------------------13---------------------------------------------|
|---------------------------------------------------------------------------|
|---------------------------------------------------------------------------|
|---------------------------------------------------------------------------|


                                     PM-----------------|
   Q              Q                  E        S    S     E        E
|-------------------------------------------------------------------------|
|--6--------------6\----------------------------------------------6-------|
|--5--------------5\----------------------------------------------3-------|
|--3--------------3\----------------------------------------------3-------|
|--3--------------3\------------------------------------------------------|
|------------------------------------0--------0----0-----0----------------|
|
|        |--3--|  |-------6-------|  |-------6--------|  |------6-------|
|  S  S  S  S  S  S   S  S  S  S  S  S  S  S  S  S    S  S  S  S  S  S  S
|----------------------------------------------------------------15-16-17-|
|-------------------------------------------------------------------------|
|--------------------------------------15S17-19-21p==19p17-19h20----------|
|----------------15--17-19p17p15-17h19------------------------------------|
|-17-13s15h17h19----------------------------------------------------------|
|-------------------------------------------------------------------------|


  +E         E        E     E        E           E            Q
|-------------------------------------------------------------------------------|
|-(6)S=======8--------8--------------5h==========6------------6\----------------|
|-(3)S=======5--------5--------------5------------------------5\----------------|
|-(3)S=======5--------5-----5--------5------------------------5\----------------|
|-------------------------------------------------------------------------------|
|-------------------------------------------------------------------------------|
|
|                                                                          ~~~~
|  |-------6-------|        |--3--|
|  S   S  S  S  S  S  S  S  S  S  S  S  +S      +S   +S      +S      +S   +S
|-18--17-15----------------15-17-18-20-(20)b22r(20)-(20)b22r(20)b22r(20)-(20)---|
|-----------18-17-15-17h18------------------------------------------------------|
|-------------------------------------------------------------------------------|
|-------------------------------------------------------------------------------|
|-------------------------------------------------------------------------------|
|-------------------------------------------------------------------------------|


                            PM---------|
   Q           Q            E     S  S  E     E
|--------------------------------------------------|
|--6-----------6\-----------------------------6----|
|--5-----------5\-----------------------------3----|
|--3-----------3\-----------------------------3----|
|--3-----------3\----------------------------------|
|---------------------------0-----0--0--0----------|
|
|  S  S  S  S  S   S  S  S  S  S  S  S  S  S  S  S
|----17----17-----17----17----17----17----17----17-|
|-------20----18-----------------20----18----------|
|-19-----------------21----19----------------21----|
|--------------------------------------------------|
|--------------------------------------------------|
|--------------------------------------------------|


                             PM------------------|
  +Q            Q            E     S  S  E     S  S
|----------------------------------------------------|
|-(6)-----------6\-----------------------------------|
|-(3)-----------3\-----------------------------------|
|-(3)-----------3\-----------------------------------|
|----------------------------------------------------|
|----------------------------0-----0--0--0-----0--0--|
|
|  S   S  S  S  S   S  S  S  S  S  S  S  S  S  S  S
|----------------------------------------------------|
|-----18----18-----18----18----18----18----18----18--|
|--------21----19-----------------21----19-----------|
|-20------------------22----20----------------22-----|
|----------------------------------------------------|
|----------------------------------------------------|


                            PM---------|
   Q           Q            E     S  S  E     E
|--------------------------------------------------|
|--6-----------6\-----------------------------6----|
|--5-----------5\-----------------------------3----|
|--3-----------3\-----------------------------3----|
|--3-----------3\----------------------------------|
|---------------------------0-----0--0--0----------|
|
|  S  S  S  S  S   S  S  S  S  S  S  S  S  S  S  S
|----17----17-----17----17----17----17----17----17-|
|-------20----18-----------------20----18----------|
|-19-----------------21----19----------------21----|
|--------------------------------------------------|
|--------------------------------------------------|
|--------------------------------------------------|
|
| Gtr III
|  W
|--------------------------------------------------|
|--------------------------------------------------|
|--------------------------------------------------|
|--------------------------------------------------|
|--------------------------------------------------|
|--------------------------------------------------|


  +E      E     E     E     E   E            Q
|--------------------------------------------------------------------|
|-(6)S====8-----8-----------5h==6------------6\----------------------|
|-(3)S====5-----5-----------5----------------5\----------------------|
|-(3)S====5-----5-----5-----5----------------5\----------------------|
|--------------------------------------------------------------------|
|--------------------------------------------------------------------|
|
|  S   S  S  S  S  S  S  S  E  +S      +S   +S      +S   +S      +S
|-----15----15----15----15-------------------------------------------|
|--------18----17----------------------------------------------------|
|-17-----------------19----17-(17)b19r(17)-(17)b19r(17)-(17)b19r(17)-|
|--------------------------------------------------------------------|
|--------------------------------------------------------------------|
|--------------------------------------------------------------------|
|
|  H                        E  +S      +S   +S      +S   +S      +S
|--------------------------------------------------------------------|
|--------------------------17-(17)b19r(17)-(17)b19r(17)-(17)b19r(17)-|
|--------------------------------------------------------------------|
|--------------------------------------------------------------------|
|--------------------------------------------------------------------|
|--------------------------------------------------------------------|


                                   PM----------------|
   Q                  Q            E           S   S  E     E
|----------------------------------------------------------------|
|--6------------------6\------------------------------------6----|
|--5------------------5\------------------------------------3----|
|--3------------------3\------------------------------------3----|
|--3------------------3\-----------------------------------------|
|----------------------------------0-----------0---0--0----------|
|
|  S  +S      +S   S  S   S  S  S  S  +S      +S   S  S  S  S  S
|-17-(17)b19r(17)p15-17--17-15-13-15-(15)b17r(15)p13-15-15-13-12-|
|----------------------------------------------------------------|
|----------------------------------------------------------------|
|----------------------------------------------------------------|
|----------------------------------------------------------------|
|----------------------------------------------------------------|
|
|  S  +S      +S   S  S   S  S  S  S  +S      +S   S  S  S  S  S
|-20-(20)b22r(20)p18-20--20-18-17-18-(18)b20r(18)p17-18-18-17-15-|
|----------------------------------------------------------------|
|----------------------------------------------------------------|
|----------------------------------------------------------------|
|----------------------------------------------------------------|
|----------------------------------------------------------------|


                                    PM-------------------------|
  +Q                   Q            E           S   S  E     S  S
|------------------------------------------------------------------|
|-(6)------------------6\------------------------------------------|
|-(3)------------------3\------------------------------------------|
|-(3)------------------3\------------------------------------------|
|------------------------------------------------------------------|
|-----------------------------------0-----------0---0--0-----0--0--|
|
|  S   +S      +S   S  S   S  S  S  S  +S      +S   S  S  S  S  S
|-13--(13)b15r(13)p12-13--13-12-10-12-(12)b14r(12)p10-12-12-10-----|
|--------------------------------------------------------------13--|
|------------------------------------------------------------------|
|------------------------------------------------------------------|
|------------------------------------------------------------------|
|------------------------------------------------------------------|
|
|  S   +S      +S   S  S   S  S  S  S  +S      +S   S  S  S  S  S
|-17--(17)b19r(17)p15-17--17-15-13-15-(15)b17r(15)p13-15-15-13-12--|
|------------------------------------------------------------------|
|------------------------------------------------------------------|
|------------------------------------------------------------------|
|------------------------------------------------------------------|
|------------------------------------------------------------------|


                            PM---------|
   Q           Q            E     S  S  E     E
|--------------------------------------------------|
|--6-----------6\-----------------------------6----|
|--5-----------5\-----------------------------3----|
|--3-----------3\-----------------------------3----|
|--3-----------3\----------------------------------|
|---------------------------0-----0--0--0----------|
|
|  S  S  S  S  S   S  S  S  S  S  S  S  S  S  S  S
|-10-----------------------------------------10----|
|----13-10-----------------------------10-13----13-|
|----------12-10-----------------10-12-------------|
|-----------------12-10----10-12-------------------|
|-----------------------12-------------------------|
|--------------------------------------------------|
|
|  S  S  S  S  S   S  S  S  S  S  S  S  S  S  S  S
|-15-13-----------------------------------13-15-13-|
|-------15-13-----------------------13-15----------|
|-------------14--12----------12-14----------------|
|--------------------15-12-15----------------------|
|--------------------------------------------------|
|--------------------------------------------------|


  +E      E     E     E     E     E     Q
|--------------------------------------------------------------------|
|-(6)S====8-----8-----------5h====6-----6\---------------------------|
|-(3)S====5-----5-----------5-----------5\---------------------------|
|-(3)S====5-----5-----5-----5-----------5\---------------------------|
|--------------------------------------------------------------------|
|--------------------------------------------------------------------|
|
|  S   S  S  S  S  S  S  S  S  S  S  S  S     +S      +S   +S
|-17--15-13----18-17-15----20-18-17----20----(20)b22r(20)-(20)b22----|
|-----------13----------15----------18-------------------------------|
|--------------------------------------------------------------------|
|--------------------------------------------------------------------|
|--------------------------------------------------------------------|
|--------------------------------------------------------------------|
|
|  S   S  S  S  S  S  S  S  S  S  S  S  Q
|-20--18-17----22-20-18----24-22-20----24b26-------------------------|
|-----------18----------20----------22-------------------------------|
|--------------------------------------------------------------------|
|--------------------------------------------------------------------|
|--------------------------------------------------------------------|
|--------------------------------------------------------------------|


   E        E        E        E        E        E        E                E
|---------------------------------------------------------------------------------|
|---------------------------------------------------------------------------------|
|--3--------3--------3--------3-----------------3-------------------------3-------|
|--3--------3--------3--------3-----------------3-------------------------3-------|
|--1--------1--------1--------1-----------------1-------------------------1-------|
|---------------------------------------------------------------------------------|
|
|  |------6-------|  |------6-------|  |------6-------|  |----------6-----------|
|  S  S  S  S  S  S  S  S  S  S  S  S  S  S  S  S  S  S  S      +S   +S   S  S  S
|-18-15-17-18-17-15-20-15-17-18-17-15----17-15------------------------------------|
|-------------------------------------18-------17-17-15-17b19==(17)r(17)-15s13----|
|------------------------------------------------------------------------------15-|
|---------------------------------------------------------------------------------|
|---------------------------------------------------------------------------------|
|---------------------------------------------------------------------------------|


                     PM------|                          PM              PM
   E        E        E        E            E            E      E        E
|-------------------------------------------------------------------------------|
|-------------------------------------------------------------------------------|
|-----------3------------------------------3-------------------3----------------|
|-----------3------------------------------3-------------------3----------------|
|-----------1--------0--------0------------1------------0------1--------0-------|
|-------------------------------------------------------------------------------|
|
|  |------6-------|  |------6-------|                          |------6-------|
|  S  S  S  S  S  S  S  S  S  S  S  S     +S   +S      +S   S  S  S  S  S  S  S
|-------------------------------------------------------------------------------|
|----------------------------13-15-15b18r(15)-(15)b19r(15)----------------------|
|-14-12-------------12-14-15----------------------------------------------------|
|-------14-12-14-15-------------------------------------------17-19-20-19-17----|
|----------------------------------------------------------20----------------20-|
|-------------------------------------------------------------------------------|


         PM------|                  PM                PM
   E     E        E        E        E        E        E        E
|----------------------------------------------------------------------|
|----------------------------------------------------------------------|
|--5-----------------------5-----------------5-----------------9-------|
|--5-----5--------5--------5-----------------5----------------10-------|
|--3-----3--------3--------3--------3--------3--------3-------10-------|
|----------------------------------------------------------------------|
|
|        |--3--|  |------6-------|  |------6-------|  |------6-------|
|  S  S  S  S  S  S  S  S  S  S  S  S  S  S  S  S  S  S  S  S  S  S  S
|----------------------------------------------------------------------|
|----------------------------------------------18-20----18-20-22-20-18-|
|----------17-19----17-19-21-19-17----18-20-21-------21----------------|
|-17-19-20-------20----------------20----------------------------------|
|----------------------------------------------------------------------|
|----------------------------------------------------------------------|


                      PM
   Q                  E         Q.                       Q
|-----------------------------------------------------------------|
|-----------------------------------------------------------------|
|--9-----------------(9)-------10-----------------------12\-------|
|-10----------------(10)-------10-----------------------10\-------|
|-10-----------------10--------10-----------------------10\-------|
|-----------------------------------------------------------------|
|
|  |------6-------|   |-------6--------|  |--3--|        |--3---|
|  S  S  S  S  S  S   S   S  S  S   S  S  S  S  S  S  S  E   E  E
|-------------18-20--22--20-18-----20-18----------------18--20-22-|
|----18-20-22------------------22--------22-20-18-20-22-----------|
|-21--------------------------------------------------------------|
|-----------------------------------------------------------------|
|-----------------------------------------------------------------|
|-----------------------------------------------------------------|


                                   PM----|     PM|         PM|
   Q       E  Q.     E  E     E  E S S S S  E  S S  E      S S
|-------------------------|------------------------------------|
|--3----------3------3----|------------------------------------|
|--2----------3------3----|------------------------------------|
|--0----------0------0--0-|------------------------------------|
|--0--------------------0-|------5---------[5]-----[5]b5.5-----|
|----------0--------------|---0----0-0-0-0-----0-0---------0-0-|
|
|                    ~~~~~~~~~~~~~~~~~~~~~~~~~~~~~~~~~~~~~~~~~~~
|  Q      +H        +Q       +W
|-22b25r=(22)------(22)---|-(22)-------------------------------|
|-------------------------|------------------------------------|
|-------------------------|------------------------------------|
|-------------------------|------------------------------------|
|-------------------------|------------------------------------|
|-------------------------|------------------------------------|
|
| Gtr III
|  W                          W
|-------------------------|------------------------------------|
|-------------------------|------------------------------------|
|-------------------------|------------------------------------|
|-------------------------|------------------------------------|
|-------------------------|------------------------------------|
|-------------------------|------------------------------------|


                       D.S.S. al Dbl. Coda
    Q   E Q.     E    E    +Q   E  Q.   E E
|-----------------------|-------------------|
|---3-----3-------------|-------------------|
|---2-----3-----------5-|--(5)-----3----3---|
|---0-----0-----------5-|--(5)-----3----3---|
|---0-----------------3-|--(3)-----1----1---|
|-------0--------0------|-------0---------0-|
|
|~~~~~~
|  +H        Q.    a  E    +Q   E  Q.   E E
|-(22)------------------|-------------------|
|------------------8s10-|-(10)--8-------8---|
|-----------------------|---------10--------|
|-----------------------|-------------------|
|-----------------------|-------------------|
|-----------------------|-------------------|
|
|   H        Q.    a  E    +Q   E  Q.   E E
|-----------------------|-------------------|
|-----------------------|-------------------|
|------------------9s10-|-(10)--9--7----9---|
|-----------------------|-------------------|
|-----------------------|-------------------|
|-----------------------|-------------------|


 Out-Chorus
  &&
                          PM----|     PM|         PM|
   Q  E Q.   E E     E  E S S S S  E  S S  E      S S
|----------------|------------------------------------|
|--3----3----3---|------------------------------------|
|--2----3----3---|------------------------------------|
|--0----0----0-0-|------------------------------------|
|--0-----------0-|------5---------[5]-----[5]b5.5-----|
|-----0----------|---0----0-0-0-0-----0-0---------0-0-|
|
|  W                +W
|----------------|------------------------------------|
|----------------|------------------------------------|
|-10-------------|-(10)-------------------------------|
|----------------|------------------------------------|
|----------------|------------------------------------|
|----------------|------------------------------------|
|
|  W                +W
|----------------|------------------------------------|
|----------------|------------------------------------|
|--7-------------|--(7)-------------------------------|
|----------------|------------------------------------|
|----------------|------------------------------------|
|----------------|------------------------------------|


    Q   E Q.       E    E    +Q   E  Q.   E E
|-------------------------|-------------------|
|---3-----3---------------|-------------------|
|---2-----3-------------5-|--(5)-----3----3---|
|---0-----0-------------5-|--(5)-----3----3---|
|---0-------------------3-|--(3)-----1----1---|
|-------0----------0------|-------0---------0-|
|
|  +H         +Q.    a  E    +Q   E  Q.   E E
|-------------------------|-------------------|
|--------------------8s10-|-(10)--8-------8---|
|-(10)-------(10)---------|---------10--------|
|-------------------------|-------------------|
|-------------------------|-------------------|
|-------------------------|-------------------|
|
|  +H         +Q.    a  E    +Q   E  Q.   E E
|-------------------------|-------------------|
|-------------------------|-------------------|
|--(7)--------(7)----9s10-|-(10)--9--7----9---|
|-------------------------|-------------------|
|-------------------------|-------------------|
|-------------------------|-------------------|


                            PM----|     PM|         PM|
     Q  E Q.   E E     E  E S S S S  E  S S  E      S S
||-----------------|------------------------------------|
||o--3----3----3---|------------------------------------|
||---2----3----3---|------------------------------------|
||---0----0----0-0-|------------------------------------|
||o--0-----------0-|------5---------[5]-----[5]b5.5-----|
||------0----------|---0----0-0-0-0-----0-0---------0-0-|
|
|    W                +W
||-----------------|------------------------------------|
||o----------------|------------------------------------|
||--10-------------|-(10)-------------------------------|
||-----------------|------------------------------------|
||o----------------|------------------------------------|
||-----------------|------------------------------------|
|
|    W                +W
||-----------------|------------------------------------|
||o----------------|------------------------------------|
||---7-------------|--(7)-------------------------------|
||-----------------|------------------------------------|
||o----------------|------------------------------------|
||-----------------|------------------------------------|


    Q   E Q.       E    E    +Q   E  Q.   E E
|-------------------------|----------------------||
|---3-----3---------------|---------------------o||
|---2-----3-------------5-|--(5)-----3----3------||
|---0-----0-------------5-|--(5)-----3----3------||
|---0-------------------3-|--(3)-----1----1-----o||
|-------0----------0------|-------0---------0----||
|
|  +H         +Q.    a  E    +Q   E  Q.   E E
|-------------------------|----------------------||
|--------------------8s10-|-(10)--8-------8-----o||
|-(10)-------(10)---------|---------10-----------||
|-------------------------|----------------------||
|-------------------------|---------------------o||
|-------------------------|----------------------||
|
|  +H         +Q.    a  E    +Q   E  Q.   E E
|-------------------------|----------------------||
|-------------------------|---------------------o||
|--(7)--------(7)----9s10-|-(10)--9--7----9------||
|-------------------------|----------------------||
|-------------------------|---------------------o||
|-------------------------|----------------------||


                          PM----|     PM|         PM|
   Q  E Q.   E E     E  E S S S S  E  S S  E      S S
|----------------|------------------------------------|
|--3----3----3---|------------------------------------|
|--2----3----3---|------------------------------------|
|--0----0----0-0-|------------------------------------|
|--0-----------0-|------5---------[5]-----[5]b5.5-----|
|-----0----------|---0----0-0-0-0-----0-0---------0-0-|
|
|  W                +W
|----------------|------------------------------------|
|----------------|------------------------------------|
|-10-------------|-(10)-------------------------------|
|----------------|------------------------------------|
|----------------|------------------------------------|
|----------------|------------------------------------|
|
|  W                +W
|----------------|------------------------------------|
|----------------|------------------------------------|
|--7-------------|--(7)-------------------------------|
|----------------|------------------------------------|
|----------------|------------------------------------|
|----------------|------------------------------------|


    Q   E Q.       E    E    +Q   E  Q.   Q
|-------------------------|-------------------|
|---3-----3---------------|-------------------|
|---2-----3-------------5-|--(5)-----3----3---|
|---0-----0-------------5-|--(5)-----3----3---|
|---0-------------------3-|--(3)-----1----1---|
|-------0----------0------|-------0-----------|
|
|  +H         +Q.    a  E    +Q   E  Q.   E E
|-------------------------|-------------------|
|--------------------8s10-|-(10)--8-------8---|
|-(10)-------(10)---------|---------10--------|
|-------------------------|-------------------|
|-------------------------|-------------------|
|-------------------------|-------------------|
|
|  +H         +Q.    a  E    +Q   E  Q.   E E
|-------------------------|-------------------|
|-------------------------|-------------------|
|--(7)--------(7)----9s10-|-(10)--9--7----9---|
|-------------------------|-------------------|
|-------------------------|-------------------|
|-------------------------|-------------------|


 Outro
  Gtr I
       PM|       PM
   E E E E E  E  E E    +H     +E   E  Q
|--------------------|---------------------|
|----3-----3-(3)---3-|--(3)----(3)---------|
|----2-----0h=2----3-|--(3)----(3)---------|
|----0-----0-(0)---0-|--(0)----(0)---------|
|--------------------|---------------------|
|--0---0-0-------0---|-------------h0s15\--|
|
|  W                    +W
|--------------------|---------------------|
|--------------------|---------------------|
|-10-----------------|-(10)----------------|
|--------------------|---------------------|
|--------------------|---------------------|
|--------------------|---------------------|
|
|  W                    +W
|--------------------|---------------------|
|--------------------|---------------------|
|--7-----------------|--(7)----------------|
|--------------------|---------------------|
|--------------------|---------------------|
|--------------------|---------------------|


         PM|       PM
    E  E E E E  E  E E       E  E E Q  E Q
|------------------------|-------------------|
|------3-----3-(3)---3---|------3---3--3-3---|
|------2-----0h=2----3---|------2---0--3-2---|
|------0-----0-(0)---0---|------0---0--0-0---|
|------------------------|-------------------|
|---0----0-0-------0-----|---0----0----------|
|
|  +W                       +W
|------------------------|-------------------|
|------------------------|-------------------|
|-(10)-------------------|-(10)--------------|
|------------------------|-------------------|
|------------------------|-------------------|
|------------------------|-------------------|
|
|  +W                       +W
|------------------------|-------------------|
|------------------------|-------------------|
|--(7)-------------------|--(7)--------------|
|------------------------|-------------------|
|------------------------|-------------------|
|------------------------|-------------------|


      PM|       PM
  E E E E E  E  E E   +H.      +E   E    Q.   E  H      W          W
|-------------------|-----------------|---------------|----------|------*|
|---3-----3-(3)---3-|-(3)------(3)----|---------------|----------|------*|
|---2-----0h=2----3-|-(3)------(3)----|---------------|----------|------*|
|---0-----0-(0)---0-|-(0)------(0)----|---------------|----------|------*|
|-------------------|-----------------|---------------|----------|------*|
|-0---0-0-------0---|--------------h0s|=12s==(0)------|----------|------*|


Duration Legend
---------------
W - whole; H - half; Q - quarter; E - 8th; S - 16th; T - 32nd; X - 64th; a - acciaccatura
+ - note tied to previous; . - note dotted; .. - note double dotted
Uncapitalized letters represent notes that are staccato (1/2 duration)
Irregular groupings are notated above the duration line
Duration letters will always appear directly above the note/fret number it represents the
duration for.  Duration letters with no fret number below them represent rests.  Multi-
bar rests are notated in the form Wxn, where n is the number of bars to rest for.  Low
melody durations appear below the staff

Tablature Legend
----------------
 h   - hammer-on
 p   - pull-off
 b   - bend
 pb  - pre-bend
 r   - bend release (if no number after the r, then release immediately)
 /\  - slide into or out of (from/to "nowhere")
 s   - legato slide
 S   - shift slide
  - natural harmonic
[n]  - artificial harmonic
n(n) - tapped harmonic
 ~   - vibrato
 tr  - trill
 T   - tap
 TP  - trem. picking
 PM  - palm muting
\n/  - tremolo bar dip; n = amount to dip
 \n  - tremolo bar down
 n/  - tremolo bar up
/n\  - tremolo bar inverted dip
 =   - hold bend; also acts as connecting device for hammers/pulls
 <>  - volume swell (louder/softer)
 x   - on rhythm slash represents muted slash
 o   - on rhythm slash represents single note slash

Misc Legend
-----------
 |  - bar
||  - double bar
||o - repeat start
o|| - repeat end
*|  - double bar (ending)
 :  - bar (freetime)
 $  - Segno
 &  - Coda
Tempo markers -  = BPM(8/16=s8/s16), where s8 = swing 8ths, s16 = swing 16ths


Добавлено: 30.03.2012
Вам также может быть интересно:
Другие материалы по этой песне:

Страница создана 17.03.2012
http://primanota.ru/edens-curse/trinity-chords.htm
Привет, Гость.
Предлагаем пройти революционный курс по гитаре.
Подарок от PrimaNota.Ru, забирай!