PrimaNota.ru - самый крупный в мире бесплатный архив песенных текстов, аккордов, табулатур и нот


Edenbridge - Evermore - аккорды и текст, видео

Регистрация Запомнить меня
Войти через:  Facebook Google Twitter Vk Yandex Mail.ru

Edenbridge - Evermore - аккорды и текст, видео

Печатать
Просмотров: 125
Авторы музыки: Lanvall
Авторы текста: Lanvall
Evermore
Edenbridge
----NOTES----
Riffs
m = palm mute

Riff 1
e|-----------------|--------------------|-----------------|-----------------|
B|-----------------|--------------------|-----------------|-----------------|
G|-----------------|--------------------|-----------------|-----------------|
D|-6-------6/7-6---|-6-------9-/10-9----|-6-------6/7-6---|-2---0---0---0---|
A|-7-------7/8-7---|-7-------10/11-10---|-7-------7/8-7---|-2---0---0---0---|
E|-----0-0---------|-----0-0------------|-----0-0---------|-----------------|
       m m               m m                  m m
   E

Riff 2 - this is also played on E chords ending verse lines ("beguiled", "styled", "behind", "blind")
e|-----------------|--------------------|-----------------|-----------------|
B|-----------------|--------------------|-----------------|-----------------|
G|-----------------|--------------------|-----------------|-----------------|
D|-6-------6/7-6---|-6-------9-/10-9----|-6-------6/7-6---|-2---0---0---3---|
A|-7-------7/8-7---|-7-------10/11-10---|-7-------7/8-7---|-2---0---0---3---|
E|-----0-0---------|-----0-0------------|-----0-0---------|-----------------|
       m m               m m                  m m
   E

F chords in the chorus and intro (including "F11/E") alternate between these forms below:
EADGBe    EADGBe
133200 to 133211
Transposed chorus:
It might be easier to just stick with the bar chord,
considering this is normally an electric guitar song.


--END NOTES--

ORDER: I V1 PC C V2 PC C B C C


[INTRO]
Em CM7/E Am9/E F11/E

(riff 1 + 2)
E


[VERSE 1]
E
Earthborn child
F          Dm       E
Take me to places beguiled
E            F
You feast my eye on
   Am
So high-flown
    Dm       E
And heavenly styled


[PRE-CHORUS]
F             Bbm
  In all your splendor
             F
  You're the force
             A
  My vein of gold


[CHORUS 1]
Em
Stay
              CM7
Make my heart sway
             Am9
And light my way
            F
Flow on the drain of life
Em
Try
            CM7
And you'll espy
             Am9
The one thereby
           F
A kiss of eternity
Am
Evermore


[VERSE 2]
E
Stream my mind
F           D           E
Leaving the daydreams behind
E            F
Those pearly waters
  Am
A halo
  Dm            E
A light for the blind


[PRE-CHORUS]
F             Bbm
  In all your splendor
             F
  You're the force
             A
  My vein of gold


[CHORUS 2]
Em
Stay
              CM7
Make my heart sway
             Am9
And light my way
            F
Flow on the drain of life
Em
Try
            CM7
And you'll espy
             Am9
The one thereby
           F
A kiss of eternity
Am
Evermore


[BRIDGE]
Em CM7 Am9 F

(spoken)
     Em              CM7
"The one that stays, one that sways
Am9        F
I  espy, a moonlit sky"


[CHORUS 3]
Em
Stay
              CM7
Make my heart sway
             Am9
And light my way
            F
Flow on the drain of life


[CHORUS 4]
Fm
Stay
              DbM7
Make my heart sway
             Bbm9
And light my way
            Gb
Flow on the drain of life
Fm
Try
            DbM7
And you'll espy
             Bbm9
The one thereby
           Gb
A kiss of eternity
Bbm
Evermore


[OUTRO]
Dm Dm Dm
Добавлено: 13.08.2015
Другие материалы по этой песне:
  • Аккорды и текст

Страница создана 10.11.2013
http://primanota.ru/edenbridge/evermore-chords.htm
Привет, Гость.
Предлагаем пройти революционный курс по гитаре.
Подарок от PrimaNota.Ru, забирай!